Let The Four Winds Blow Tab - Robert Plant






Let the Four Winds Blow
Robert Plant and The Strange Sensation
The Mighty Rearranger

Standard Tuning
Intro:
    |------------------------------|
    |------------------------------|
    |---5----------5-7p5-----------|  play 2x
    |-------5h7----------7---------|
    |-----7------------------------|
    |------------------------------|

Verse:
      AmG
And I open my eyes
       Am             G      Am
As the sun leaves the western sky
  Am     G
Precious memory dies
      Am           G           Am
Once again you are here at my side

Am        G
Blow wind blow
    G           E5   G5    Am
Through my heart let the four winds blow

 And I'm back on the hill
|------------------------|
|------------------------|
|------------------------|
|-----2-0---0------------|
|-0-3-----3--------------|
|------------------------|

Yes you've gone but you're with me still
|------------------------|
|------------------------|
|------------------------|
|-----2-0---0-2----------|
|-0-3-----3-----3p0------|
|------------------------|

Now I'm way down the line
|------------------------|
|------------------------|
|------------------------|
|-----2-0---0------------|
|-0-3-----3--------------|
|------------------------|
Yes you're gone but you're still on my mind
|----------------------------------------|
|----------------------------------------|
|----------------------------------------|
|-----2-0---0-2--------------------------|
|-0-3-----3-----3p0--------------------0-|
|------------------------------------3---|

Am   G
Blow wind blow
            G             E5   G5    Am
Through my heart let the four winds blow
   GAm
I've been walking with strangers and talking all out of my mind
          G         Am
While the dogs in the manger, elusive and so hard to find
G                                          Am
Conversations with angels, I seek the dimensional key
        G                                              E5
I been wheeling and dealing whatever will bring you to me

 " Uh uh uh uh uh uh..."
|----------------------|
|----------------------|
|--5-----5-----5-------|   Play 4x
|-----7-----7-----7----|
|----------------------|
|----------------------|

Am   G
Blow wind blow
            G             E5   G5    Am
Through my heart let the four winds blow
Am   G
Blow wind blow
            G             E5   G5    Am
Through my heart let the four winds blow

   GAm
I've been walking with strangers and talking all out of my mind
          G         Am
While the dogs in the manger, elusive and so hard to find
G                                          Am
Conversations with angels, I seek the dimensional key
        G                                              E5
I been wheeling and dealing whatever will bring you to me

|-------------------|
|-------------------|
|-------------------| Play 2x
|-------------------|
|----------3--0-----|
|-1---0-------------|
then:
|----------0---------|
|----------1---------|
|----------2---------|
|----------2---------|
|----------0---------|
|-1---0--------------|

then:
" Uh uh uh uh uh uh..."
|----------------------|
|----------------------|
|--5-----5-----5-------|   Play 4x
|-----7-----7-----7----|
|----------------------|
|----------------------|

Here your just strumming the B and E string in unison
|-000000000000000000000000000000000000000000000000000000000000000000000000000|
|-55555555555555/88888888/10-10-10-10-10-10-10/11-11-11-11-11-11-11/15-15-15-|
|----------------------------------------------------------------------------|
|----------------------------------------------------------------------------|
|----------------------------------------------------------------------------|
|----------------------------------------------------------------------------|

cont'd
|-00000000000000000-15----15----15----15----15----------------|
|-18-18-18-18-18-18-18b20-18b20-18b20-18b20-18b20-------------|
|-------------------------------------------------------------|
|-------------------------------------------------------------|
|-------------------------------------------------------------|
|-------------------------------------------------------------|

and the rest of the solo ends the song
THE END

ĂŽnscrie-te la newsletter


Like us on Facebook