Moonlight In Samosa Tab - Robert Plant






Song: Moonlight In Samosa
Artist: Robert Plant
Tabbed By: Indie Nation

Riff 1
E------------------1---0--------0-----|
B-------------------3----1-------3----|
G----------0h2---2---2---0--------3---|
D------2h3-----0---------2---3-----3--|
A--3h5---------------------1---1----1-|
E-------------------------------------|

Riff 2
E------------------1---0--------1-----|
B-------------------3----1-------3--3-|
G----------0h2---2---2---0--------3---|
D------2h3-----0---------2---3-----3--|
A--3h5---------------------1---1------|
E-------------------------------------|

Riff 3
E-----------------------|
B-----------3--3------5-|
G----3---------------6--|
D---3------5--5-----7---|
A--1---0--5--------7----|
E--------3------3-5-----|

Riff 4
E--0---3-1-0-----0---3-1-0----2-|
B----3-------3-----3-------3--3-|
G-----------------------------2-|
D-----------------------------0-|
A-------------------------------|
E-------------------------------|


Intro
Riff 1
Riff 2


Riff 1
     Time and again I see you walking down the street

Riff 2
     Over and over, just like before

Riff 1
Once in a while you stop and say hello to me

Riff 3
Just like you used to do before

Riff 1
Time and again, it's like we were in love and then

Riff 2
Over and over - nobody keeping score

Riff 1
Once in a while I think you notice when I smile

Riff 3
That love still lingers in my eyes

Riff 4
Riff 4

D    C
It can't go wrong, it can't go wrong

D       C
It lingers on, it lingers on

Acoustic Solo (work in progress)
Riff 1
Riff 2
Riff 1
Riff 3

Riff 1
Day after day I turn it over in my mind

Riff 2
Dream after dream it's hard to tell you how I find

Riff 1
Out of the blue I'm suddenly so close to you

Riff 3
Despite the years that I've been gone

Riff 1
Will you stop - will you wait a minute - please remember

Riff 2
Can you stop - can you just give me one minute to explain

Riff 1
I will not cause a fuss, I will not rock the boat - believe me darling

Riff 3
Oh what is, what was, it's all the same

Riff 4
Riff 4

Outro
alternating D and C

ĂŽnscrie-te la newsletter


Like us on Facebook