Shine It All Around Tab - Robert Plant






                             Shine It All Around
                               Robert Plant
                           Album: Mighty Rearranger

Rythym:
|-------------------------------------|
|---------------------3---3--3--------|
|-4---4--4------------2---2--2---2--2-|
|-4---4--4---4--4-----0---0--0---2--2-|
|-2---2--2---4--4----------------0--0-|
|------------2--2---------------------|



Guitar Solo:
|---------------------------------------14--b--16--|
|-14-b-15-----15--14-12---15-15p14-12--------------|
|--------------------------------------------------|
|--------------------------------------------------|
|--------------------------------------------------|
|--------------------------------------------------|

ĂŽnscrie-te la newsletter


Like us on Facebook