Song To The Siren Tab - Robert Plant






Artist: Robert Plant
Song: Song To The Siren
Tunning: standard
Tabbed By: INDIE NATION

This is a beautiful solo of this song.
use many slides here and also use some echo.

--------------------------------------------------------------------------|
--------------------------------------------------------------------------|
--------------------------------------------------------------------------|
--11-11-11--11-11--14-14--14-11-119--9-9--74--9/11--11--11--11--9--7----|
--------------------------------------------------------------------------|
--------------------------------------------------------------------------|

--------------------------------------------------------------------------|
--------------------------------------------------------------------------|
--------------------------------------------------------------------------|
-11-11-11-11-11--14-14-14--11-11--9-9-9-9/7-4-11-11-9h11-9-7--------------|
--------------------------------------------------------------------------|
--------------------------------------------------------------------------|

--------------------------------------------------------------------------|
--------------------------------------------------------------------------|
-6-7-9--6-7-9-9/13-13-13-13-13-13-11-11--7-7--9-6h7-6--6-6-6-7--6---------|
--------------------------------------------------------------------------|
--------------------------------------------------------------------------|
--------------------------------------------------------------------------|

--------------------------------------------------------------------------|
--------------------------------------------------------------------------|
-6-7-9--6-7-9-9/13-13-13-13-14-13--13-11-117-7-72-2-2-2-4/6-6-4h6-------|
--------------------------------------------------------------------------|
--------------------------------------------------------------------------|
--------------------------------------------------------------------------|

--------------------------------------------------------------------------|
--------------------------------------------------------------------------|
--4--2--------------------------------------------------------------------|
----------4--2--2/7-------------------------------------------------------|
--------------------------------------------------------------------------|
--------------------------------------------------------------------------|

ĂŽnscrie-te la newsletter


Like us on Facebook