Blue Roses Tab - Rookie Of The Year




Here's the whole song! If you have any corrections, please leave a comment or email.

Tuning: 
Drop D
Capo on 2nd Fret

Intro/Verse 1
e|---------------------------------------0~-|
B|-----0------------------------------------|
G|-------1~-1-----2~---2-1h2---2-------2----|
D|---2----------2------------2--------------| x 4
A|-0-------------------------------0-2------|
D|------------0------4-----------2----------|

Dont Be the One
e|-----0~-----0~-----0~-0~-|
B|----------------------x~-|
G|---2------2------2----2~-|
D|-0------2------0------2~-|
A|-------------------------|
D|-------------------------|

Pre-verse 
e|---------------------------------------0~-|
B|-----0------------------------------------|
G|-------1~-1-----2~---2-1h2---2-------2----|
D|---2----------2------------2--------------| 
A|-0-------------------------------0-2------|
D|------------0------4-----------2----------|

e|---------------------------------------0---|
B|-----0-------------------------------------|
G|-------1~-1-----2~---2-1h2---2-------2---2-|
D|---2----------2------------2---------------| 
A|-0-------------------------------0-2-------|
D|------------0------4-----------2-----------|

Verse 2
e|---------------------------------------0~-|
B|-----0------------------------------------|
G|-------1~-1-----2~---2-1h2---2-------2----|
D|---2----------2------------2--------------| x 2
A|-0-------------------------------0-2------|
D|------------0------4-----------2----------|

Dont Be the One
e|-----0~-----0~-----0~-0~-|
B|----------------------x~-|
G|---2------2------2----2~-|
D|-0------2------0------2~-| x 2
A|-------------------------|
D|-------------------------|

Gotta Get Out Of Here
e|-------------------------------|
B|-------------------------------|
G|-----2-----2-----2-----2-----2-|
D|---2-----2-----2-----2-----2---| x 3
A|-------------------------------|
D|-4-----2-----0-----0-----0-----|

e|-------------0-----------0-----------|
B|-------------------------------------|
G|-----2-----2---2-2-2-2-2---2-2-2-2-2-|
D|---2-----2---------------------------|
A|-------------------------------------|
D|-4-----2-----------------------------|

Guitar 1
e|-----12~-|
B|-10~-----|
G|---------|
D|---------| x 4
A|---------|
D|---------|

e|-------------|
B|-------------|
G|-7~-6~-------|
D|-------9~-7~-| x 2
A|-------------|
D|-------------|

Guitar 2
Keep strumming this chord 
e|-0-|
B|-x-|
G|-2-|
D|-2-|
A|-0-|
D|---|

You are a beautiful
Strum this chord
e|-5-|
B|-x-|
G|-2-|
D|-2-|
A|-0-|
D|---|

Guitar 1
e|---------|
B|-2-------|
G|---2~----|
D|------2~-|
A|---------|
D|---------|

e|--------------------|
B|----------3-2-------|
G|-----2~-----------4-|
D|-0------0-----0/2---| x 3
A|---4----------------|
D|--------------------|

Guitar 3
Repeat this a couple of times
e|-------|
B|---3-2-|
G|-------|
D|-2-----|
A|-------|
D|-------|

e|-7-7-7-7-|
B|---------|
G|---------|
D|---------|
A|---------|
D|---------|

Guitar 1 & 3
e|------5---10-9-5-5-----7-7-7-7-|
B|-3-2~---3----------5-5---------|
G|-------------------------------|
D|-------------------------------| x 2
A|-------------------------------|
D|-------------------------------|

Guitar 1
e|-------------------------|
B|-3-2-3---3/5~------------|
G|-------2------2~-4-2-4-2-|
D|-------------------------| x 6
A|-------------------------|
D|-------------------------|

Guitar 3 (come in with distortion after Guitar 1 plays the above twice)
e|-------------------|
B|-------------------|
G|-------------------|
D|-44-77-00-000-2222-| x 4
A|-44-77-00-000-2222-|
D|-44-77-00-000-2222-|

Guitar 1
e|---------------------------------------|
B|---------------------------------------|
G|---------------------------------------|
D|-000----------------000000000/22222222-| 
A|-----444
ĂŽnscrie-te la newsletter


Join the ranks ! LIKE us on Facebook