Holdin On Tab - Rooney




Intro : C G Em D

                  C       G                 Em                            D
I was young, Id seen it all. A cemetery in the middle of a super mall.
I went to school. I never learned. How it feels, how everything you love can burn.
And it never stops. Its all I got. And I never know when to turn.
Like a merry-go-round it all comes around again.

[CORO]
                  C        G                 Em        D
And I dont know why I'm here, I dont know where Ill go
                  C      G                     Em     D
cause if I dont give it time, how could this garden grow?
             C         G                                B                          Em
I dont know what Ive lost, and I dont know how to get it back
                Am
But Im holdin' on
           D
Im holdin on, for as long as I can"

1-------7-------------7-----------------------------------|
2-----8---8---------8---8--------8-10-8---------8-10-8-7-8|
3-7-9-------9-7-7-9------9-7-7-9--------9-7-7-9-----------|
4---------------------------------------------------------|
5---------------------------------------------------------|
6---------------------------------------------------------|
          
        C       G                 Em                            D
I moved away, I quit the band. I saw it comin it was written on the back of my hand.
Every day. I could feel. Something' missin' I went home to get a record deal."
And my mother said, your theirs to your dead, to them its just another meal.
Now I'm fat with regret. Im placin' my bet on me."

                  C        G                 Em        D
And I dont know why I'm here, I dont know where I'll go
                  C      G                     Em     D
cause if I dont give it time, how could this garden grow?
           C         G                B                  Em
I dont know what I've lost, and I dont know how to get it back
                Am
But Im holdin' on
           D
Im holdin on, for as long as I can


A7m                      B7m
It's not over yet, no, it's not even close
             A7m                 B7m
My heart is younger, stronger than 100 cowards in a row
              A7m                      B7m
And all my curiosity will keep me asking, "What went wrong?
               A7m   
When it's all done, when it's gone,
                                 B
No, it won't be long 'til I'm traveling back in time
To a place when I was mine


Solo:

1.-------------------------------------------8-7-5-3-0-3---3-3-3-2-0--|
2.-----8-----8---------------------------5-3-------------0-----------3|
3.-7-9---7-9---7-5-4-2-0---0-4---0-5-4-2------------------------------|
4.-----------------------2-----2--------------------------------------|
5.--------------------------------------------------------------------|
6.--------------------------------------------------------------------|


                  C        G                 Em        D
And I dont know why I'm here, I dont know where I'll go
                C      G                     Em     D
cause if I dont give it time, how could this garden grow?
             C         G                B                  Em
I dont know what I've lost, and I dont know how to get it back
                Am
But Im holdin' on
           D
Im holdin on, for as long as I can


1-------7-------------7-----------------------------------|
2-----8---8---------8---8--------8-10-8---------8-10-8-7-8|
3-7-9-------9-7-7-9------9-7-7-9--------9-7-7-9-----------|
4---------------------------------------------------------|
5---------------------------------------------------------|
6---------------------------------------------------------|
(Repeat until End)

ĂŽnscrie-te la newsletter

Join the ranks ! LIKE us on Facebook