Sleep Song Solo Tab - Rooney






Rooney - Sleep Song
Standard tuning (obviously)

e-----------------------|
b-----------------------|
g-----------------------|
d-----------------------|
a-10--8-6-5-6-5-8-5-----|
e---10---------8---6-3--|

e-----------------------|
b-----------------------|
g-----------------------|
d-----------------------|
a-10--8-6-5-6-5-8-5-----|
e---10---------8---6-3--|

e---------------------------------|
b---------------------------------|
g---------------------------------|
d-8-7-5--8-7-5--8-7-7-5--8-7-7-5--|
a--5-3----5-3--------8--------8---|
e---------------------------------|

Watch "The Chumbscrubber" its an amazing movie and this song is in it and fits perfectly.

ĂŽnscrie-te la newsletter


Like us on Facebook