Face The Truth (ver2) Bass Tab - Rufio






+++++++++++++++++++++++++
| Rufio- Face The Truth |
+++++++++++++++++++++++++

Tuning: EADG

Intro
1.
G|-----------------------|
D|-2~--------2-0---------|
A|---------------2-0-2---|
E|---------------------3-|

Verse
"You take a look around.."
2.
G|----------|
D|-4~-5~----|
A|-------3~-|--x4
E|----------|

Chorus
"Its been so long.."
3.
G|-------------------------------------------------------------------------------|
D|---------------------------2~------------------------2~----------------4~-5~-0-|
A|-------3~------------------------3~----------3/5~----------3~------------------|
E|-0~----------3~----3~-2~-3-------------3~------------------------3~------------|

"Even if you dont want to.."
4.
G|----------------------------|
D|----------------------------|
A|-------3~----------5~-------|
E|-0~----------3~----------0~-|

Verse
"You take a look around.."
5.
G|----------|
D|-4~-5~----|
A|-------3~-|--x4
E|----------|

Chorus
"You wait to say goodbye.."
6.
G|-------------------------------------------------------------------------|
D|-------------------------------------------------------------------------|
A|----------33333333----------------------------33333333----------55555555-|
E|-00000000----------33333333-22223333-00000000----------33333333----------|

"A broken heart comes crashing down.."
7.
G|-------------------------------------------------------------------|
D|-------------------------------------------------------------------|
A|----------33333333----------------------------33333333----------5~-|
E|-00000000----------33333333-22223333-00000000----------33333333----|

Outro
"You gotta face the truth.."
8.
G|---------------|
D|-2~------------|
A|----2~-3~-3/5~-|--x4
E|---------------|

Verse
"You take a look around.."
9.
G|----------|
D|----------|
A|-------3~-|--x4
E|-2~-3~----|

Chorus
"You wait to say goodbye.."
10.
G|-------------------------------------------------------------------------|
D|-------------------------------------------------------------------------|
A|----------33333333----------------------------33333333----------55555555-|
E|-00000000----------33333333-22223333-00000000----------33333333----------|

"A broken heart comes crashing down.."
11.
G|-------------------------------------------------------------------|
D|-------------------------------------------------------------------|
A|----------33333333----------------------------33333333----------5~-|
E|-00000000----------33333333-22223333-00000000----------33333333----|

Outro
12.
G|-----------------------------|
D|-222222----------------------|
A|--------222222-333333-555555-|--x4
E|-----------------------------|

13.
G|------------------------------------------------------|
D|------------------------------------------------------|
A|-------3~----------3~----------3~------------55-555-5-|
E|-0~----------0~----------0~----------33-333-3---------|

14.
G|----------------------------------------------------------------|
D|----------------------------------------------------------------|
A|-------3~----------3~----------3~-------------55555555-55555555-|
E|-0~----------0~----------0~----------33-333-3-------------------|

Chorus
"You wait to say goodbye.."
15.
G|-------------------------------------------------------------------------|
D|-------------------------------------------------------------------------|
A|----------33333333----------------------------33333333----------55555555-|
E|-00000000----------33333333-22223333-00000000----------33333333----------|

"A broken heart comes crashing down.."
16.
G|----------------------------------------------------------------------------|
D|----------------------------------------------------------------------------|
A|----------33333333----------------------------33333333----------55555555-7~-|
E|-00000000----------33333333-22223333-00000000----------33333333-------------|

ĂŽnscrie-te la newsletter


Like us on Facebook