In My Eyes (ver3) Bass Tab - Rufio






 R U F I O - I N  M Y  E Y E S
 -----------------------------


4. IN MY EYES

   Tuning: EADG

  Intro
  "You're graceful.... Your grace falls...."

G|----------------------------------------------------------|
D|----------------------------------------------------------|
A|-6~-----------8--8---6~-----------------------------------|
E|-----3~--5~--6-65-6------3~--5~--666666655555555----------|


G|--------------------------------------------|
D|--------------------------------------------|
A|---------------------111111111-66666666-----|
E|-333333333-111111111------------------------|

G|-------------------------------------------------------------|
D|-----------------------------10-8----------------------------|
A|-610101010101010-8888888888-----10-8----------666666666-----|
E|--------------------------------------666666666--------------|

  Verse
  "Another day left waiting......"

G|----------------------------------------------------------------------|
D|-------------------------------------------------------------10-8-7---|
A|-----------------666-666-666-666-----------------888-888-888----------|
E|-333-333-333-333-----------------666-666-666-666----------------------|

G|------------------------------------------------------------------|
D|------------------------------------------------------------------|
A|-----------------666-666-666-666-----------------888-888-888-888--|
E|-333-333-333-333-----------------666-666-666-666------------------|

  Pre-Chorus
  "I thought that this would never end.."

G|------------------------------|     
D|------------------------------| (x3)      
A|------------------------------|
E|-333-33555-5666-6xx6xx6xx6--|     

G|--------------------------|
D|--------------------------| 
A|--666666666-888888888xxx--|
E|--------------------------|

  Chorus
  "You're graceful... Your grace falls.."

G|-------------------------------------------------------------------------------|
D|-------------------------------------------------------------------------------|
A|-666666666----------------------8--8---666666666----------------------8--8-----|
E|-----------333333333-555555555-6-65-6------------333333333-555555555-6-65-6----|

G|-------|
D|-------| 
A|--6~---|
E|-------|

  Post-Chorus

G|--------------------------------------------|
D|--------------------------------------------|
A|---------------------111111111-66666666-----|
E|-333333333-111111111------------------------|

  Verse
  "Another day left crying.."

G|-------------------------------------------------------------|
D|----------------8--8--8--8--8--8--8--8-----12--12---10--10---|
A|--------------66-66-6--6---------------1010--10---88---8-----|
E|-333333333333-------------66-66-6--6-------------------------|

G|------------------------------------------------------------------|
D|------------------------------------------------------------------|
A|-----------------666-666-666-666-----------------888-888-888-888--|
E|-333-333-333-333-----------------666-666-666-666------------------|

  Pre-Chorus
  "I thought that this would never end.."

G|------------------------------|     
D|------------------------------| (x3)      
A|------------------------------|
E|-333-33555-5666-6xx6xx6xx6--|     

G|--------------------------|
D|--------------------------| 
A|--666666666-888888888xxx--|
E|--------------------------|

  Chorus
  "You're graceful... Your grace falls.."

G|-------------------------------------------------------------------------------|
D|-------------------------------------------------------------------------------|
A|-666666666----------------------8--8---666666666----------------------8--8-----|
E|-----------333333333-555555555-6-65-6------------333333333-555555555-6-65-6----|

  Chorus Variation
  "You're graceful... Your grace falls.."

G|---------------------------------------------|
D|---------------------------------------------|
A|-6~------------8--8---6~------------8--------|
E|-----33x--5~--6-65-6------33x--5~--6-65x-----|

  Outro

G|-----------------------------------------------|
D|-----------------------------------------------| (x2)
A|------------6666666666------------8888888888---|
E|-3333333333------------6666666666--------------|

G|-------------------------------------------|
D|-------------------------------------------| (x2)
A|---------666-666-66-111-11~-888-888-88----|
E|-333-33~-----------------------------------|

  End

G|------------|
D|------------| 
A|------------|
E|--3~---3x---|


Legend Tab

| /  slide Up
|   slide Down
| h  Hammer-On
| p  Pull-Off
| ~  vibrato
| x  Mute Note

Oscar Olarte/rufiopunkrock
If you have any questions,comments.....oscardanielof@hotmail.com
www.myspace.com/bassnautilius

ĂŽnscrie-te la newsletter


Like us on Facebook