Far Cry Tab - Rush






Rush
Far Cry
2007 Single

****Great song, Great Band****

****Intro****

E----x-x-x----0-0-0----0-0-0-0-----------|
B----x-x-x----0-0-0----0-0-0-0-----------|
G----x-x-x----0-0-0----0-0-2-2-----------|
D----2-2-2----2-2-2----2-2-2-2-----------|  x3 then Power D Chord
A----2-2-2----2-2-2----2-2-2-2-----------|
E----0-0-0----0-0-0----0-0-0-0-----------|

****Pre-Verse****

E----------------------------------------|
B----------------------------------------|
G----------------------------------------|
D---------------------------2-2-2-2------|  etc.
A-------------------3-------2-2-2-2------|
E--2-0-2-4--2-2-0-2----0-0--0-0-0-0------|

Enjoy!






Like us on Facebook