The Body Electric Bass Tab - Rush






Rush: The Body Electric
>From the album Grace Under Pressure (Mercury Records)
Copyright 1984 Core Music Publishing
Music by Lee and Lifeson
Lyrics by Peart

Comments/corrections to Sean Jones 

Transcribed by Don Dianetti and Sean Jones


                 e q  Q  q   e q  q  q  e   e e  e  e e e e  e    e e  e e
e e
||------------||-r-12-14r-|-r-12-14-12-r-|-r-12-11-9-r-9-------|-r--------r---
||-4:--4 mm---||-e-------e-|-e----------e-|-e---------e---12-10-|-e-10-9-7-e---
||-4:--rest---||-s-------s-|-s----------s-|-s---------s---------|-s--------s-10
||------------||-t-------t-|-t----------t-|-t---------t---------|-t--------t---


e e+  e e e e Q e+  e e e e e e e e+  e e e e Q e+  e e e e e e e e+  e e e
----|-----5---7/--|-----5---7---5---|-------------|-----------------|-----5---
--0-|---0---0---0-|---0---0---0-----|-----5---7/--|-----5---7---5-0-|---0-----
9---|-------------|---------------0-|---0---0---0-|---0---0---0-----|---------
----|-------------|-----------------|-------------|-----------------|---------


e Q e+  e e e e e e e e+  e e e e Q e+  e e e e e e e e+  e e e e e e e e+
--7/--|-----5---7---5---|-------------|-----------------|-----5---7---5---|---
0---0-|---0---0---0-----|-----5---7/--|-----------------|---0---0---0---0-|---
------|---------------0-|---0---0---0-|---0-3-0-3-5-7-5-|-----------------|---
------|-----------------|-------------|-----------------|-----------------|---


e q  q  q  e+  e e e e e e e e+  e e e e e e e e+  e e e e Q e+  e e e e e
--12-14-12/--|-----------------|-----------------|-----5---7/--|-----5---7----
-------------|-----5---7---5---|-----------------|---0---0---0-|---0---0------
-----------0-|---0---0---0---0-|---0-3-0-3-5-7-5-|-------------|--------------
-------------|-----------------|-----------------|-------------|--------------


e e e+  e e e e e e e e+  Q e e e e e   h e e e e   h e e e e   h e e e e
--5---|-----------------|-------------|-r-r---r---|-r-r---r---|-r-r---r---|---
0-----|-----5---7---5---|-------------|-e-e---e---|-e-e---e---|-e-e---e---|---
----0-|---0---0---0---0-|---0-3-0-3-5-|-s-s-5-s-7-|-s-s-7-s-8-|-s-s-8-s-8-|---
------|-----------------|-------------|-t-t---t---|-t-t---t---|-t-t---t---|---


h e e e e   h e e e e   h e q e+  w+  h+Q e+  h e e e e+  Q e e e e e+  Q e
r-r-------|-r-r---r---|-r-r-----|---|-------|-----------|-------------|-------
e-e-------|-e-e---e---|-e-e-----|---|-------|---2-0-----|-------------|-------
s-s-8-7-5-|-s-s-5-s-7-|-s-s-7






Like us on Facebook