Witch Hunt Tab - Rush






this is a rather cool song. enjoy


e---------------------------|
b---------------------------|
g---------------------------|
d---------------------------|
a---------------------------|
e --3----9---10---5---6---2-|

do that a couple times

then

e-------------------------|
b-------------------------|
g-------------------------|
d--5--3--5--8--------9--7-|
a--5--3--5--8--------9--7-|
e-------------------------|


followed by

e---------------------|
b---------------------|
g-----------5-5--5-5--|
d-5-5--8-8--5-5--5-5--|
a-5-5--8-8--7-7--3-3--|
e-3-3--6-6------------|

im pretty sure thats right. once you get the rythmn down. listen to the album for help






Like us on Facebook