40-1 Solo Tab - Sabaton




Sabaton - 40:1 Guitar Solo
From the Album The Art of War
Tabbed by drawnacrol
Standard Tuning
Cover Video: http://www.youtube.com/watch?v=W3PyKP7-2ak


|-12p9----9h12ph9----9h12ph9----9h12p-9----9---7p4---4h7p4---4h7p4---4h7p4---4-|
|------10---------10---------10---------10---------5-------5-------5-------5---|
|------------------------------------------------------------------------------|
|------------------------------------------------------------------------------|
|------------------------------------------------------------------------------|
|------------------------------------------------------------------------------|
 
|--9p5---5h9ph5---5h9p5---5h9p5---5-------------------------------------|
|------7--------7-------7-------7-----15-14-12-----------12h14-12~------|
|----------------------------------------------14-13-14-----------------|
|-----------------------------------------------------------------------|
|-----------------------------------------------------------------------|
|-----------------------------------------------------------------------|
 

|-----------------------------------------------------------------------|
|--12/14--14--14-----14--15b17r15--15--14h15--15------------------------|
|-----------------16--------------------------------14-14---16--14--13--|
|-----------------------------------------------------------------------|
|-----------------------------------------------------------------------|
|-----------------------------------------------------------------------|

Im not sure about this next lick, its so fast that its hard to hear the exact notes: 

|-----------16p13--------------|----|--------13-16--------------|
|--------14-------14-----------|----|-----14-------14-----------|
|--13h16-------------16-14-13--|-or-|--16-------------16-14-13--|
|------------------------------|----|---------------------------|
|------------------------------|----|---------------------------|
|------------------------------|----|---------------------------|
ĂŽnscrie-te la newsletter


Join the ranks ! LIKE us on Facebook