White Death Tab - Sabaton




-----------------------------------------------------------------------------
     White Death - Sabaton                           
-----------------------------------------------------------------------------
Tabbed by: Luke Jones


Tuning: Standard

Intro: 2x  second time guitar 2 plays same part as guitar 1 with chords in 
parentheses instead of lead
Guitar 1:
e|--------------------------------------------------------------------------|
B|---------------------------------------------------/11-10h11p10h11p10-----|
G|----------------------------------------------------(3)----------------10-|
D|-12----------13-13--10--8/10-10/12-12--8-------10---(3)---------------(3)-|
A|-10-10-10-10-10-10--8---6/8---8/10-10--6-6-6-6-8----(1)---------------(3)-|
E|----------------------------------------------------------------------(1)-|
      pm-----|                            pm----|
** chords in parentheses are a second guitar, at this point it is the only part guitar 2 plays
e|--------------------------------------------------------------------------|
B|---------------------------------------------------------------3----------|
G|-------------------------10-------12-----------------------3---2----------|
D|-12----------13-13-10-10-10-10-10-10-12-12--8-------10-10--3-0-0----------|
A|-10-10-10-10-10-10-------------------10-10--6-6-6-6-8--8---1-0-0----------|
E|--------------------------------------------------------------------------|
      pm-----|        pm--|   pm---|            pm---|         pm  
Verse 
Guitars 1&2
e|--------------------------------------------------------------------------|
B|--------------------------------------------------------------------------|
G|--------------------------------------------------------------------------|
D|-12----------12----------12----------13----------13----------13-----10----|
A|-10-10-10-10-10-10-10-10-10-10-10-10-10-10-10-10-10-10-10-10-10-8-8-8-8-8-|
E|--------------------------------------------------------------------------|
      pm------|   pm-------|  pm-------|  pm-------|  pm-------|  pm-|  pm---
e|--------------------------------------------------------------------------|
B|--------------------------------------------------------------------------|
G|--------------------------------------------------------------------------|
D|-----10------13-------13-12-------12-------------10-12----------12--------|
A|-8-8-8-8-8-8-10-10-10-10-10-10-10-10-10-10-10-10-8--10-10-10-10-10-10-10--|
E|--------------------------------------------------------------------------|
   ---|  pm---|  pm----|     pm----|   pm---------|      pm------|   pm------
e|--------------------------------------------------------------------------|
B|--------------------------------------------------------------------------|
G|--------------------------------------------8--7-5-3-5----------[2x]------|
D|----12----------13----------13----------13---------------13---------------|
A|-10-10-10-10-10-10-10-10-10-10-10-10-10-10--6--5-3-1-3---10---------------|
E|--------------------------------------------------------------------------|
   --|   pm------|   pm-----|   pm-------|                                                        
e|--------------------------------------------------------------------------|
B|--------------------------------------------------------------------------|
G|--------------------------[3x]--3--3-5-7-5--------------------------3-----|
D|--------------------------------------------------------------------3-----|
A|--6p3-3-3-3-3-6p3-3-3-3-3-------1--1-3-5-3--6p3-3-3-3-3-6p3-3-3-3-3-1-6p3-|
E|--------------------------------------------------------------------------|
    pm---------------------|                  pm---------------------|  pm---
e|--------------------------------------------------------------------------|
B|--------------------------------------------------------------------------|
G|---------------------[3x]-------------------------------------------------|
D|---------------------------7---------7---------8---------7----------------|
A|-3-3-3-3-6p3-3-3-3-3-------5-5-5-5-5-5-5-5-5-5-6-5-5-5-5-5----------------|
E|--------------------------------------------------------------------------|
   -------------------|        pm-----|  pm-----|  pm-----|

Chorus: the chorus is the same as the intro, both guitars play
 the whole riff once then play verse again, then 
chorus again, after the chorus play the interlude

Interlude:
Guitar 1
e|--------------------------------------------------------------------------|
B|--------------------------------------------------------------------------|
G|-15-------14-------12-------------15-------14-------12-12-------14-15-14--|
D|-12-12-12-12-12-12-12-12-12-12-12-12-12-12-12-12-12-12-12-12-12-12-12-10--|
A|--------------------------------------------------------------------------|
E|--------------------------------------------------------------------------|
Guitar 2
e|--------------------------------------------------------------------------|
B|--------------------------------------------------------------------------|
G|--------------------------------------------------------------------------|
D|--------------------------------------------------------------------------|
A|--------------------------------------------------------------------------|
E|--6--6--6--5--5--5--3--3--3--3--3--6--6--6--5--5--5--3--3--3--3--5--6--5--|
      pm---|   pm---|   pm---------|   pm---|   pm---|       pm--|       pm--
Guitar 1
e|--------------------------------------------------------------------------|
B|--------------------------------------------------------------------------|
G|-------12-------10-------------14-------12-------10-10-------12-14-15-----|
D|-10-10-10-10-10-10-10-10-10-10-10-10-10-10-10-10-10-10-10-10-10-10-12-12--|
A|--------------------------------------------------------------------------|
E|--------------------------------------------------------------------------|
Guitar 2
e|--------------------------------------------------------------------------|
B|--------------------------------------------------------------------------|
G|--------------------------------------------------------------------------|
D|--------------------------------------------------------------------------|
A|--------------------------------------------------------------------------|
E|--5--5--3--3--3--1--1--1--1--1--5--5--5--3--3--3--1--1--1--1--3--5--6--6--|
--------|    pm--|    pm--------|  pm----|   pm---|      pm---|          pm--
Guitar 1
e|--------------------------------------------------------------------------|
B|---------------------------------------------------------------15-13------|
G|----14-------12-------------15-------14-------12-12-12-14-15--------15-14-|
D|-12-12-12-12-12-12-12-12-12-12-12-12-12-12-12-12-12-----------------------|
A|--------------------------------------------------------------------------|
E|--------------------------------------------------------------------------|
Guitar 2
e|--------------------------------------------------------------------------|
B|--------------------------------------------------------------------------|
G|-----------------------------------------------------------------3--------|
D|-----------------------------------------------------------------3---5-3--|
A|-----------------------------------------------------------------1---5-3--|
E|--6--5--5--5--3--3--3--3--3--6--6--6--5--5--5--3--3------------------3-1--|
-----|   pm---|    pm--------|   pm---|   pm---|   
*palm muting is the same for both guitars*


Guitar Solo:

e|--------------------------------------------------------------------------|
B|----------------------------------13--11-10h11p10---10-11-----------------|
G|----------15---14--12----------------------------12-------------15--14-12-|
D|-------12----12--12------10-12-13-----------------------------12--12--12--|
A|-13-15----------------------------------------------------13-15-----------|
E|--------------------------------------------------------------------------|

e|-13p11p10--------13p11p10--------13p11p10---------------------------------|
B|---------13p11p10--------13p11p10--------13p11p10-13p11p10----------------|
G|----------------------------------------------------------12--------------|
D|--------------------------------------------------------------------------|
A|--------------------------------------------------------------------------|
E|--------------------------------------------------------------------------|

e|--------------------------------------------------------------------------|
B|-------8------8------8-9-8h9p8--8--10--7---10-7-11-8--------8-7-8-10------|
G|-7h8h10-7h8h10-7h8h10---------10--------8-7----8----8-7---7--7------7-----|
D|-------------------------------------------------------5-7----------------|
A|--------------------------------------------------------------------------|
E|--------------------------------------------------------------------------|

e|---------------------------------|
B|---------------------------------|
G|-3-----3-3-5-3-3-3-5-*7*---------|
D|--5-3-5-5-----5-5----------------|
A|---------------------------------|
E|---------------------------------|
             * * means pinch harmonic
Guitar 2 plays Verse riff during guitar solo

Keyboard solo: both guitars play the verse riff that starts with 6p3

Intro/Chorus played twice

Bridge:
e|--------------------------------------------------------------------------|
B|--------------------------------------------------------------------------|
G|--------------------------------------------------------------------------|
D|-12--12--12-12--12--12--12-12-12-12--10--10--10-10--10--10--10-10-10-10---|
A|-10--10--10-10--10--10--10-10-10-10--8---8---8--8---8---8---8--8--8--8----|
E|--------------------------------------------------------------------------|

e|------------------------------------------------|
B|------------------------------------------------|
G|------------------------------------3--7-5-3-2--|
D|-12--12--12-12--12--12--12-12-12-12-3--7-5-3-2--|
A|-10--10--10-10--10--10--10-10-10-10-1--5-3-1-0--|
E|------------------------------------------------|

Then play the Interlude twice and end on e|----|
                                         B|----|
                                         G|-12-|
                                         D|-12-|
                                         A|-10-|
                                         E|----|

Thats it, this is a great song, please leave a comment if you 
like it or have any corrections although i think that this tab is 100% correct.


************************************

| /   slide up
|    slide down
| h   hammer-on
| p   pull-off
| ~   vibrato
| +   harmonic
| x   Mute note
| b   Bend
| pb  Pre-bend
| br  Bend release
| pbr Pre-bend release
| brb Bend release bend

************************************
ĂŽnscrie-te la newsletter


Join the ranks ! LIKE us on Facebook