American Way Tab - Sacred Reich






song:the american way

band:sacred reich

--------------------|
--------------------|
------(12)----------|
--------------------|
--------------------|
--------------------|

                         x8
-------------------------|
-------------------------|
-------------------------|
-----2-1--2-1--2-1--2-1--|
--1--2-1--2-1--2-1--2-1--|
--1----------------------|

                                                x2
------------------------------------------------|
------------------------------------------------|
---------3-{3}-2-{2}----------------------------|
--2-{2)--3-{3)-2-{2}-------2-1--2-1--2-1--2-1---|
--2-{2)--1-{1}-0-{0}-----1-2-1--2-1--2-1--2-1---|
--0-{0}------------------1----------------------|

the song is how i play it, i don't know the rest right now, otherwise

this is it.

--
----21-21-21-21-|
--1-21-21-21-21-|
--1

ĂŽnscrie-te la newsletter


Like us on Facebook