If Only Intro Tab - Sacred Reich








 |--0-2-2/3-3|-0-5-5-7-|-3-3-5-2-|--0-2-2/3-|-3-2-0-|-5-5-7-8-|-8-7-5-|
 |-----------|---------|---------|----------|-------|---------|-------|
 |-----------|---------|---------|----------|-------|---------|-------|
 |-----------|---------|---------|----------|-------|---------|-------|
 |-----------|---------|---------|----------|-------|---------|-------|
 |--3-0-0----|---0-----|-0-----0-|--3-0-----|-------|-0-----0-|-------|


 |--5-5-7-|-3-3-5-2-|--0-2-2/3-|-3-2-0-|
 |--------|---------|----------|-------|
 |--------|---------|----------|-------|
 |--------|---------|----------|-------|
 |--------|---------|----------|-------|
 |--0-0---|-0-----0-|--3-0-----|-------|

ĂŽnscrie-te la newsletter


Like us on Facebook