Notres Langues Nous Trompent Bass Tab - SAETIA






------------------------------------------------------------------------------
Saetia - Notres Langues Nous Trompent - Bass
-------------------------------------------------------------------------------

Tabbed By : Sam0eL

G|---------------------------|-----------------------------------------------|
D|---------------------------|---------------7-------------------------------|
A|-00-11-00-11-0-1-011-33-11-|----7---7---78--7------------------------------|
D|---------------------------|--7---7---7------------------------------------|

G|---------------------------|-----------------------------------------------|
D|---------------------------|---5--5--5--5----------------------------------|
A|----5-7---5-8--5-8---5-8-3-|--7--7--7--7--7---7h9h7-5h7h5-3h5h33h5h3-------|
D|--7-----7-----7----7-------|-7--7--7--7--7--8------------------------------|


G|---------------------------------------------------------------------------|
D|---------------------------------------------------------------------------|
A|--777888101010-------------------------------------------------------------|
D|---------------------------------------------------------------------------|

G|---------------------------------------------------------------------------|
D|---------------------------------------------------------------------------|
A|----5-7-----5-6------------------------------------------------------------|
D|--7-----7-7-----6----------------------------------------------------------|

G|-----------------|----------------------------------------------------------|
D|-----------------|----------------------------------------------------------|
A|-----------------|----------------------------------------------------------|
D|--02-233-3-33-5--|--22-22/1-------------------------------------------------|






Like us on Facebook