Venus And Bacchus (ver2) Tab - SAETIA






tune into Drop D.


intro:
   figure out the picking pattern by listening.

  play clean
e|---3--2-0h2-----3--2--0h2---3p2-0----7--5--3--2---------|
B|--------------------------------------------------------|
G|--------------------------------------------------------|x4
D|--2--2--2--2--2--2--2--2--2---2-2---0--0--0--0----------|
A|--------------------------------------------------------|
D|--------------------------------------------------------|

e|---3--2-0h2-----3--2--0h2---3p2-0----8-7--8-7--8-7--8-7--|
B|-----------------------------------------8----8----8---8-|
G|---------------------------------------------------------|x2
D|--2--2--2--2--2--2--2--2-----2--2------------------------|
A|---------------------------------------------------------|
D|---------------------------------------------------------|

e|---3--2-0h2-----3--2--0h2---3p2-0----7--5--3--2---------|
B|--------------------------------------------------------|
G|--------------------------------------------------------|x2
D|--2--2--2--2--2--2--2--2--2---2-2---0--0--0--0----------|
A|--------------------------------------------------------|
D|--------------------------------------------------------|


little soft interlude.....

pick out the notes fast like in the song.
im just going to give the notes, not how many times theyre played.

e|----12-12-12--10-10-10--12-12-12--------------|
B|----------------------------------------------|
G|----------------------------------------------|
D|----------------------------------------------|
A|----------------------------------------------|
D|----------------------------------------------|

after that it goes straight into...
-(heavy distortion)
e|----------------------------------------------------------------|
B|----------------------------------------------------------------|
G|--16--14--12--11--------------------------------16--14--12--11--|x1
D|----------------------5-4-2-4--5-4-2-4--5-4-2-------------------|
A|--14--12--10---9------5-4-2-4--5-4-2-4--5-4-2---14--12--10---9--|
D|----------------------5-4-2-4--5-4-2-4--5-4-2-------------------|

e|-----------------------------------------------------|
B|-----------------------------------------------------|
G|--------------------------------16--14--12--11-------|
D|-----5-4-2-4--5-4-2-4--5-4-2-------------------------|x7
A|-----5-4-2-4--5-4-2-4--5-4-2----14--12--10---9-------|
D|-----5-4-2-4--5-4-2-4--5-4-2-------------------------|


bridge-type-thing
(clean)
e|-----------------------|
B|-----------------------|
G|--9-----7--------------|x4
D|--9-----7--------------|
A|--7-----5--------------|
D|-----------------------|

thennn
(heavy distortion)
e|-----------------------------------|
B|-----------------------------------|
G|---------7~----------7/14-14-14----|x4
D|--2-3-2--x~---2-3-2--x/x--x--x-----|
A|--2-3-2--5~---2-3-2--5/12-12-12----|
D|--2-3-2--0~---2-3-2--0/x-----------|


bridge thing again
(clean)
e|-----------------------|
B|-----------------------|
G|--9-----7--------------|x4
D|--9-----7--------------|
A|--7-----5--------------|
D|-----------------------|

*p.m. all the way through this.**************
e|------------------------------------|
B|------------------------------------|
G|-9-9-9-9-9-9--7-7-7-7-7-7-----------|x4
D|-9-9-9-9-9-9--7-7-7-7-7-7-----------|
A|-7-7-7-7-7-7--5-5-5-5-5-5-----------|
D|------------------------------------|


thennnnnn
(heavy distortion again)
e|-------------------------------------------------|
B|-------------------------------------------------|
G|--------/-16~--------------------12-12--11-11----|x5
D|--5--5-5/-x-~-----2-2---2-2----------------------|
A|--5--5-5/-14~-----2-2---2-2------10-10---9--9----|
D|--5--5-5/---------2-2---2-2----------------------|


e|-------------------------------------------------|
B|-------------------------------------------------|
G|--------------------/-16~------------------------|
D|--------------5--5-5/-x-~------------------------|
A|--------------5--5-5/-14~------------------------|
D|--------------5--5-5/----------------------------|
                        ^^ ring out on that chord. bend it a little.






Like us on Facebook