On Earth Intro Tab - Samael




S A M A E L - O N  E A R T H


Dm

-----------------------------------------------|
-----------------------------------------------|
-----------------------------------------------|
-----7---7-----8---8-----7---7-----8---8-------|
--5---------5---------5---------5--------------|
-----------------------------------------------|


------------------------------------|
------------------------------------|
-----2---2-----3---3----------------|
--3---------3---------3-2-----------|
--------------------------5-4-------|
------------------------------------|

this is intense i know...but with practice it'll come

- awobijo69

ĂŽnscrie-te la newsletter


Join the ranks ! LIKE us on Facebook