Zeppo (ver2) Tab - SANCTITY






-------------------------------------------------------------------------------
     ZEPPO - Sanctity
-------------------------------------------------------------------------------
Tabbed by: Korbhag
Email: sekel_39@hotmail.com

Tuning: d,a,d,g,b,e

I'd say everything is perfect except the verse that sucks but I'll try to correct it when
my guitar will be repaired (that song just broke my guitar! :P). That's it, have fun now!


INTRO I
Guitar 1
e|-------------------||-------------------||-------------------||-------------------|
b|-------------------||-------------------||-------------------||-------------------|
g|-------------------||-------------------||-------------------||-------------------|
d|-------------------||----------5--3--0--||-------------------||----------5--3--0--|
a|---2--3--0--3--2h3-||---2--3---5--3--0--||---2--3--0--3--2h3-||---2--3---5--3--0--|
d|-22-22-22-22-22----||-22-22-22-5--3--0--||-22-22-22-22-22----||-22-22-22-5--3--0--|

Guitar 2
e|-------------------||-------------------||-------------------||-------------------|
b|-------------------||-------------------||-------------------||-------------------|
g|-------------------||-------------------||-------------------||-------------------|
d|-2R----------------||----------5--3--0--||-2R----------------||----------5--3--0--|
a|-2R----------------||----------5--3--0--||-2R----------------||----------5--3--0--|
d|-2R----------------||----------5--3--0--||-2R----------------||----------5--3--0--|

INTRO II
e|-------------------||-------------------||-------------------||-----------------------------------|
b|-------------------||-------------------||-------------------||-----------------------------------|
g|-------------------||-------------------||-------------------||-----------------------------------|
d|-2-----------------||-5------------55---||-0R----------------||-----------------------------------|
a|-2-----------------||-5------------55---||-0R----------------||-10101012121214141515151414141212--|
d|-2-2222222222222---||-5-5555555555555---||-0R----------------||-----------------------------------|
     XXXXXXXXXXXXX        XXXXXXXXXXX
e|-------------------||-------------------||-------------------||-----------------------------------|
b|-------------------||-------------------||-------------------||-----------------------------------|
g|-------------------||-------------------||-------------------||-----------------------------------|
d|-2-----------------||-5------------55---||-0R----------------||-----------------------------------|
a|-2-----------------||-5------------55---||-0R----------------||-10101012121214141515151414141212--|
d|-2-2222222222222---||-5-5555555555555---||-0R----------------||-----------------------------------|
     XXXXXXXXXXXXX        XXXXXXXXXXX
e|-------------------|
b|-------------------|
g|-------------------|
d|-------------------|
a|-10R-----9-5-5-5---|
d|-------------------|

VERSE
e|-------------------||-------------------||----------------------------||------------------------------|
b|-------------------||-------------------||----------------------------||------------------------------|
g|-------------------||-------------------||-----------------------8-7--||------------------------------|
d|-2---------2--5--2-||-2---------2--5--2-||----------------------------||------------------------------|
a|-2--------2-25-25--||-2--------2-25-25--||-5h6----6h7----7h8-8p7------||-5h6----6h7----10-9-7---------|
d|-2-222222----------||-2-222222----------||-----00-----00--------------||-----00-----00--------12-10-9-|
     XXXXXX               XXXXXX                 XX     XX                     XX     XX
e|-------------------||-------------------||----------------------------||------------------------------|
b|-------------------||-------------------||----------------------------||------------------------------|
g|-------------------||-------------------||-----------------------8-7--||------------------------------|
d|-2---------2--5--2-||-2---------2--5--2-||----------------------------||------------------------------|
a|-2--------2-25-25--||-2--------2-25-25--||-5h6----6h7----7h8-8p7------||-5h6----6h7----10-9-7---------|
d|-2-222222----------||-2-222222----------||-----00-----00--------------||-----00-----00--------12-10-9-|
     XXXXXX               XXXXXX                 XX     XX                     XX     XX
e|-------------------||-------------------||----------------------------||--------------------------------------|
b|-------------------||-------------------||----------------------------||--------------------------------------|
g|-------------------||-------------------||-----------------------8-7--||--------------------------------------|
d|-2---------2--5--2-||-2---------2--5--2-||----------------------------||-----------------------------------11-|
a|-2--------2-25-25--||-2--------2-25-25--||-5h6----6h7----7h8-8p7------||-7h8----9h11----12-11-9----9-11-12----|
d|-2-222222----------||-2-222222----------||-----00-----00--------------||-----00------00---------12------------|
     XXXXXX               XXXXXX                 XX     XX                     XX      XX

CHORUS
e|------------------------------------------||---------------------------------------------------------|
b|------------------------------------------||---------------------------------------------------------|
g|-9999999999999999999999991111111111111111-||-1212121212121212121212121212121212121212111111111111111-|
d|------------------------------------------||---------------------------------------------------------|
a|-7777777777777777777777779-9-9-9-9-9-9-9--||-10101010101010101010101010101010101010109-9-9-9-9-9-9-9-|
d|------------------------------------------||---------------------------------------------------------|

BRIDGE

e|----------------||----------------||----------------||----------------|
b|----------------||----------------||----------------||----------------|
g|----------------||----------------||----------------||----------------|
d|-0-2----0-2-----||-0-2----0-2-----||-0-2----0-2-----||-0-2----0-2-----|
a|-0-2----0-2-----||-0-2----0-2-----||-0-2----0-2-----||-0-2----0-2-----|
d|-0-2-00-0-2-000-||-0-2-00-0-2-000-||-0-2-00-0-2-000-||-0-2-00-0-2-000-|
       XX     XXX        XX     XXX        XX     XXX        XX     XXX
e|------------------||------------------||------------------||----------------|
b|------------------||------------------||------------------||----------------|
g|-----5----4----2b-||-----7----5----4b-||-----5----4----2b-||----------------|
d|------------------||------------------||------------------||-0-2----0-2-----|
a|-2-3---22---22----||-5-7---55---55----||-2-3---22---22----||-0-2----0-2-----|
d|------------------||------------------||------------------||-0-2-00-0-2-000-|
         XX   XX             XX   XX             XX   XX           XX     XXX
e|------------------||------------------||------------------||----------------|
b|------------------||------------------||------------------||----------------|
g|-----5----4----2b-||-----7----5----4b-||-----5----4----2b-||----------------|
d|------------------||------------------||------------------||-0-2----0-2-----|
a|-2-3---22---22----||-5-7---55---55----||-2-3---22---22----||-0-2----0-2-----|
d|------------------||------------------||------------------||-0-2-00-0-2-000-|
         XX   XX             XX   XX             XX   XX           XX     XXX
e|---------------------|
b|---------------------|
g|---------------------|
d|-0-2-----------------|
a|-0-2-----------------|
d|-0-2-000-7b--9b------|
       XXX
SOLO (Only the rhythm part)
e|---------------------------------||----------------------------------|
b|---------------------------------||----------------------------------|
g|---------------------------------||----------------------------------|
d|-5555555555555555555555577777777-||-99999999999999999999999977777777-|
a|-3333333333333333333333355555555-||-77777777777777777777777755555555-|
d|---------------------------------||----------------------------------|

e|---------------------------------||--------------------------------------------------------------------------------------------------|
b|---------------------------------||--------------------------------------------------------------------------------------------------|
g|---------------------------------||--------------------------------------------------------------------------------------------------|
d|-5555555555555555555555577777777-||-777777777777777799999999999999991010101010101010101010101010101012121212121212121212121212121212-|
a|-3333333333333333333333355555555-||-777777777777777799999999999999991010101010101010101010101010101012121212121212121212121212121212-|
d|---------------------------------||-777777777777777799999999999999991010101010101010101010101010101012121212121212121212121212121212-|

| /  slide up
|   slide down
| h  hammer-on
| p  pull-off
| ~  vibrato
| +  harmonic
| x  Mute note
| R  Let ring
===============================================================================






Like us on Facebook