Zeppo Tab - SANCTITY






Tabbed: Graham Simmonds (angry_again_666)
SO yeh i tabbed this out because well there is only the intro on the site, i know this
is not 100% percent corrent and well i'm sorry but it is the best thing on
so far. Please can you e-mail me any correction (angry_again_666@hotmail.co.uk) and i'll 
it soon as.

Band:      Sanctity
Song:      Zeppo
Album:     Road To Bloodshed
Guitarist: Zeff
Tuning:    Standard (Droped D)

Intro:

e]-------------------------------------------------------|
B]-------------------------------------------------------|
G]-------------------------------------------------------|
D]-------------------------------------------------------|
A]-----2-----3-----0-----2-----3/2-----2-----3--5-4-0-2--|
D]-2-2---2-2---2-2---2-2---2-2-----2-2---2-2----5-4-0-2--|

e]-------------------------------------------------------|
B]-------------------------------------------------------|
G]-------------------------------------------------------|
D]-------------------------------------------------------|
A]-----2-----3-----0-----2-----3/2-----2-----3--5-4-0-2--|
D]-2-2---2-2---2-2---2-2---2-2-----2-2---2-2----5-4-0-2--|

Solo:

e]-------------------------------------------------------|
B]-------------------------------------------------------|
G]-------------------------------------------------------|
D]-------------------------------------------------------|
A]-------------------------------------------------------|
D]-------------------------------------------------------|

Verse:

e]------------------------------------------------------------------|
B]------------------------------------------------------------------|
G]------------------------------------------------------------------|
D]------------------------------------------------------------------|
A]-2-2-2-2-2-2-2-2-2-2-2-2-2-2-2-2-2-2-2-2-2-2-2-2-2-2-2-2-2-2-2-2--|
D]-2-2-2-2-2-2-2-2-2-2-2-2-2-2-2-2-2-2-2-2-2-2-2-2-2-2-2-2-2-2-2-2--|

e]------------------------------------------------------------------|
B]------------------------------------------------------------------|
G]------------------------------------------------------------------|
D]------------------------------------------------------------------|
A]-?-?-?-?-?-?-?-?-?-?-?-?-?-?-?-?-0-0-0-0-0-0-0-0-0-0-0-0-0-0-0-0--|
D]-?-?-?-?-?-?-?-?-?-?-?-?-?-?-?-?-0-0-0-0-0-0-0-0-0-0-0-0-0-0-0-0--|

Chorus:

e]------------------------------------------------------------------|
B]------------------------------------------------------------------|
G]------------------------------------------------------------------|
D]-9-9-9-9-9-9-9-9-9-9-9-9-9-9-9-9-9-9-9-9-9-9-9-9-9-9-9-9-9-9-9-9--|
A]-7-7-7-7-7-7-7-7-7-7-7-7-7-7-7-7-7-7-7-7-7-7-7-7-7-7-7-7-7-7-7-7--|
D]------------------------------------------------------------------|

Interclude:

e]---------------------------|
B]---------------------------|
G]---------------------------|
D]---------------------------|
A]-0-2-0-2--x-x-0-2-0-2-10/--|
D]-0-2-0-2--x-x-0-2-0-2-10/--|

Harmonized Solo:

e]-------------------------------------------------------|
B]-------------------------------------------------------|
G]-------------------------------------------------------|
D]-------------------------------------------------------|
A]-------------------------------------------------------|
D]-------------------------------------------------------|

Zeff's Solo

e]-------------------------------------------------------|
B]-------------------------------------------------------|
G]-------------------------------------------------------|
D]-------------------------------------------------------|
A]-------------------------------------------------------|
D]-------------------------------------------------------|

Outro:

Verse:

e]----
B]----
G]----
D]----
A]-2--
D]-2--


Intro:          (X 2)
Verse:          (X 4)
Chorus:         (x 4)
Interclude:     (X 2)
Harmonized Solo:
Zeff's Solo:
Verse:          (X 4)
Chorus:         (X 8)
Verse:          (X 4)






Like us on Facebook