New Hometown Tab - Sara Evans






-------------------------------------------------------------------------------
                             NEW HOMETOWN  Sara Evans
-------------------------------------------------------------------------------
Tabbed by: Steph
Email: clichedplatitude@hotmail.com

Tuning: standard tuning
  Capo on third fret

Chords:
EADGBe
D:xx0232
G:320033
A:x02220
Bm:x24432
Bm/A:x04432


intro:
D G
e|----0h2--0h2-----2h3--2h3----|
B|----3----3-------0----0------|
G|----2----2-------0----0------|
D|----0----0-------0----0------| x2
A|-----------------2----2------|
E|-----------------3----3------|
    D     A      Bm     G
e|--2-0--------------------------------------------|
B|-------------------------------------------------|
G|-------------------------------------------------|
D|-------------------------------------------------|
A|----------------5-4-0----------------------------|
E|----------------------3--------------------------|
verse 1:
G       D
Every day we walk right past
         A
All the concrete and the glass
         Bm
I don't know where we're going
G          D
I hardly ever see your face
       A
And there's not enough space
        Bm       G
For all the love we should be growing,  oh


chorus:
  D                   
We just need a little earth to stand on
    A     
Plant our hearts on solid ground
   Bm      
Turn the lights out in this city
   G          
And wake up in a new hometown
D
We'll stand out in our front yard
A
Where we can finally breathe
Bm            Bm/A           G
If we find a little earth to stand on
C  G  D
Baby you and me

  D         A    Bm     G
e|-------------------------------------------------|
B|--75--------------------------------------------|
G|-------------------------------------------------|
D|-------------------------------------------------|
A|----------------5-4-0----------------------------|
E|----------------------3--------------------------|

verse 2:
G  D
Imagine Friday football games
   A
Where everybody knows our names
  Bm
They even stop to say hello
G    D
I bet they'll have a town parade
A
Kids selling lemonade
    Bm    G
Baby, don't you wanna go, ohhhh


chorus:
  D                   
We just need a little earth to stand on
    A     
Plant our hearts on solid ground
   Bm      
Turn the lights out in this city
   G          
And wake up in a new hometown
D
We'll stand out in our front yard
A
Where we can finally breathe
Bm            Bm/A           G
If we find a little earth to stand on
C  G  D  
Baby you and me

Bm  G  Bm  G


bridge:
        Bm
I don't want to face tomorrow
            G
If we don't leave this place tonight
     D
I've never been more sure
       A
Of anything in my life


chorus:
  D                   
We just need a little earth to stand on
    A     
Plant our hearts on solid ground
   Bm      
Turn the lights out in this city
   G          
And wake up in a new hometown
D
We'll stand out in our front yard
A
Where we can finally breathe
Bm            Bm/A           G
If we find a little earth to stand on
C  G  D
Baby you and me

D                   
need a little earth to stand on
    A     
Plant our hearts on solid ground
   Bm      
Turn the lights out in this city
     G          
And wake up in a new hometown
D
We'll dance out in our front yard
A
Underneath a maple tree
Bm            Bm/A           G
If we find a little earth to stand on
C  G  D
Baby you and me

D   A    Bm    G

D   A    Bm    G

Ending:  C  G  D

ĂŽnscrie-te la newsletter


Like us on Facebook