Si Amaneciera Tab - SARATOGA




Song: Si Amaneciera
Artist: Saratoga

Riff 1 (Jero)
   Lam                                 Re
|----5-4---5p4-------------5-------------5-5-----5-----5--------|
|--------------5-5p7-5-5-7---5-5---7-5-------7-----7----7-------|
|--6-----------------------------6-----7--------7---7----7------|
|---------------------------------------------------------------|
|---------------------------------------------------------------|
|---------------------------------------------------------------|

  Mi
|----7-7-----7---7-|
|--------9----9----|
|--9--------9--9---|
|------------------|
|------------------|
|------------------| 2 veces, en la segunda Leo toca Riff 2

Riff 2 (Leo)

|-5-5-7-7s9-9-9-10-7-7h9-9-9-14-14-12-12-10-10-9-9-7-7-5-5-4-4--|
|---------------------------------------------------------------|
|---------------------------------------------------------------|
|---------------------------------------------------------------|
|---------------------------------------------------------------|
|---------------------------------------------------------------|

|-----4---------7-5-4-----|
|-7-7---7-5-----------7-5-|
|-------------------------|
|-------------------------|
|-------------------------|
|-------------------------|

Verso 1

 LamSol
Ahora que mi voz se ha convertido 
               Fa
En apenas un suspiro
      Mi
Debo descansar
LamSol
Hoy que en la mitad de mi camino 
    Fa
La evidencia me ha vencido
  Mi
Y me ha hecho llorar

Verso 2

DoSolFa
S que el tiempo curar
  Mi   Do
Aunque nada siga igual
  Sol   Fa
No me quiero resignar
Mi
No olvidar

(verso 1)
Yo que hasta el momento ignoraba
El punto en que se hallaba
Esa enfermedad
Siento que la vida es como un hilo 
Que se corta de improviso
Y sin avisar

(verso 2)
Y en la oscura habitacin
Necesito or tu voz
Ahora duermes junto a m
Esperar

Fa#m   Mi Si
Si amaneciera sin ti 
   Mi    Re
Yo no s qu sera de m
  MiFa#m
Hoy la muerte me ha mostrado ya sus cartas
 Mi  Si
Y no entiendo la jugada
MiRe
Trato de salir 
La   Mi
No quiero admitir
  Fa#m
Mi soledad

Riff 2...

(verso 1)
Duermo apenas cinco o seis minutos
Suficientes para hundirme 
En la tempestad
Los demonios que hay bajo la cama
Esta noche no se callan 
No me dejarn 

(verso 2)
El reloj marca las seis 
Lo ms duro es el final 
Y la luz se posar
En el cristal 

(verso 1)
Huyo a veces pienso en otra cosa 
Mi cerebro reacciona 
No me deja en paz 
Y de nuevo vuelve a sacudirme
Ese fro incontenible 
Que es la realidad

(verso 2)
El primer rayo de sol 
Me iluminar el corazn
Te distingo junto a m 
Mi salvacin

Fa#5    Mi5 Si5
Si amaneciera sin ti 
   Mi5        Re5  Si5 Do#5 Re5
Yo no s qu sera de m
  Re5Do#5   Si5  La5Fa#5
Hoy la muerte me ha mostrado ya sus cartas
 Mi5  Si5
Y no entiendo la jugada
Mi5Re5
Trato de salir 
La5  Si5
No quiero admitir
  Fa#5
Mi soledad

Esto es igual que los versos pero en quintas y con la distorsin

Y en la oscura habitacin
Necesito or tu voz
Ahora duermes junto a m
Esperar

El primer rayo de sol 
Me iluminar el corazn
Te distingo junto a m 
Mi salvacin

Fa#5    Mi5 Si5
Si amaneciera sin ti 
   Mi5        Re5  Si5 Do#5 Re5
Yo no s qu sera de m
  Re5Do#5   Si5  La5Fa#5
Hoy la muerte me ha mostrado ya sus cartas
 Mi5  Si5
Y no entiendo la jugada
Mi5Re5
Trato de salir 
La5  Si5
No quiero admitir
  Fa#5
Mi soledad

ĂŽnscrie-te la newsletter


Join the ranks ! LIKE us on Facebook