Claw The Clouds Intro Tab - SATARIEL






http://www.satariel.com/           

      E  E  E  E  E  E  E   E   
D#||---------------------------|
A#||---------------------------|
F#||---------------------------|
C#||---------------------------|
G#||---------------------------|
F ||--5-----7--------8-----10--|
A#||-----0-----0--0-----0------|


  PM PM              PM PM         
  E  E  E  E   E  E  E  E          
---------------------------|
---------------------------|
---------------------------|
---------------------------|
---------------------------|
--------8--7------7--------|
--0--0--------10-----0--0--|






Like us on Facebook