Black Crow On A Tombstone Tab - Satyricon






all right guys this is the rest of black crow on a tombstone


Intro
e|-------------------------------------------------------------------|
b|-------------------------------------------------------------------|
g|-------------------------------------------------------------------|
d|-------------------------------------------------------------------|
a|0000--0000--0000--1111--0000--0000--0000--1111--0000--0000--0000---|
D|0000--0000--0000--1111--0000--0000--0000--1111--0000--0000--0000---|


Intro Riff
e|-------------------------------------------------------------------|
b|-------------------------------------------------------------------|
g|-------------------------------------------------------------------|
d|--7h8p7----------------7h8p7---------------------------------------|
a|----------5h6p5-4h5p4---------4h5p4h5/6----------------------------|
D|0-------0-------------0------0-------------------------------------|
play twice then intro and this again


Verse
e|-------------------------------------------------------------------|
b|-------------------------------------------------------------------|
g|-------------------------------------------------------------------|
d|-------------------------------------------------------------------|
a|--5h6p5-5h6p5-5h6p5-5h6p5-6----------------------------------------|
D|0-------------------------6----------------------------------------|
repeat for entire verse 


Chourus
e|-------------------------------------------------------------------|
b|-------------------------------------------------------------------|
g|-------------------------------------------------------------------|
d|-------------------------------------------------------------------|
a|----000000-11111111-----000000-11111111----------------------------|
D|12-000000-11111111-12-000000-11111111----------------------------|
repeat for entire chourus

listen to song for timing


alright guys thats it, thanks and please rate. KEEP ON ROCKIN!






Like us on Facebook