Dominions Of Satyricon Tab - Satyricon






SATYRICON "DOMINIONS OF SATYRICON"
FROM THE LP "THE SHADOWTHRONE"
Tabbed by Anders Pedersen: mc_nyregrus@hotmail.com

   
 = repeat between the two  signs (used in Riff B and Riff I)

Riff A:
Play 7 X (first 2 w/ timpanies)
|-----------------------------------------------|
|-----------------------------------------------|
|------8-8--7--78-10----------------------------|
|8-888-6-6--5--56-8--8--8-888-9--8--6--6-4-6-8--|
|6-666---------------6--6-666-7--6--4--4-2-4-6--|
|-----------------------------------------------|


Riff B:
|----------------------------------------|
|----------------------------------------|
|----999911111111121212121111119999----|
|9999------------------------------9999|
|----------------------------------------|
|----------------------------------------|
Play 6X
|--------------------------------|
|----------------*-----------~---| The first time play 8th fret
|--------88888888--------88889999| at the ~
|88888888--------88888888--------| (Drums enters at the * 2nd time
|--------------------------------| and the riff starts over from
|--------------------------------| the top)
      (end Riff B)

Riff C: Play 6X
|-------------------------------------------------------|
|-------------------------------------------------------|
|-------------------------------------------------------|
|9-----9-----9-----9-----10------10------10------10-----|
|--7-----7-----7-----7------8-------8-------8-------8---|
|----7-----7-----7-----7------8-------8-------8-------8-|

I think the piano plays Riff C and the guitar just plays Riff D 6X

Riff D:Play 1 X
|------------------------|
|------------------------|
|------------------------|
|9----------10-----------|
|7----------10-----------|
|7----------8------------|


Riff E:  Play 4X       Play 4X
|------------------------||------------------------|
|------------------------||------------------------|
|999999999999888888------||------------------------|
|------------------888888||999999999999888888------|
|------------------------||------------------666666|
|------------------------||------------------------|
(End Riff E)
Play Riff E a total of 2X

Riff F: Play 14X
|---------------|
|---------------|
|---------------|
|---------------| The first 4 times guitar 2 only plays
|7777--------8--| the A5 chords. Drums and keyboard come
|5555-7-10-7----| in on the 5th time

Riff G:
|-------------------------------------------------
|-------------------------------------------------
|-------------------------------------------------
|--------77777777--------88888888--------77777777-
|-------------------------------------------------
|55555555--------55555555--------55555555---------
  _________       _______________
 |1.,3.,..11. |2.,4.,..12.
--------------------------------|------------------|
--------------------------------|------------------|
7777777788888888----------------|------------------|
----------------8888888899999999|888888889999------|
----------------6666666677777777|66666666777710--9-|
--------------------------------|------------8---7-|
 (End Riff G)
Riff H:
Keyboard/first guitar
|-------------------------------------------------------
|-------------------------------------------------------
|-------------------------------------------------------
|9-----9-----9-----9-----10------10------10------10-----
|--7-----7-----7-----7------8-------8-------8-------8---
|----7-----7-----7-----7------8-------8-------8-------8-

ECCFD
|------------------------------------------------------|
|------------------------------------------------------|
|------------------------------------------------------|
|9-----9-----9-----9-----10------10------7------10-----|
|--7-----7-----7-----7------8-------8------5-------8---|
|----7-----7-----7-----7------8-------8------5-------8-|
    (End Riff H)

Riff H1: (2nd)Guitar
|-------------------------------------------------------
|-------------------------------------------------------
|-------------------------------------------------------
|9-----------------------10-----------------------------
|7-----------------------10-----------------------------
|7-----------------------8------------------------------

|-------------------------------------------------------|
|-------------------------------------------------------|
|-------------------------------------------------------|
|9------------------------3--------------7------10------|
|7------------------------1--------------5-------8------|
|7------------------------1--------------5-------8------|
    (End Riff H1)
Play Riff H and Riff H1 a total of 6X

Riff I:
|--------------------------------------------------|-
|--------------------------------------------------|-
|666666666666------666666777777666666------------|-
|------------777777------------------777777444444|-
|--------------------------------------------------|-
|--------------------------------------------------|-

   Play 2X
------------------------------------------------|
------------------------------------------------|
------------------------------------------------|
999999999999999999999999777777777777777777777777|
------------------------------------------------|
------------------------------------------------|
      (End Riff I)

Play Riff H and H1 a total of 4X
Play Riff I a total of 2X


Lick: (Guitar only)
|------------------------|
|------------------------|
|------------------------|
|555555555555333333333333|
|------------------------|
|------------------------|







Riff J:
|-----------------------------------------------------
|-----------------------------------------------------
|666666---666777666------666666---6667777777777777777-
|------777---------777444------777--------------------
|-----------------------------------------------------
|-----------------------------------------------------

   Play Aprox. 6X
------------------------------------------------|
------------------------------------------------| The 2nd time,
-----------------------------------------*------| make a break
999999999999777777777777555555555555333333333333| at the *.
------------------------------------------------|
------------------------------------------------|
      (End Riff J)
Fade
Keyboard fades in on a D
Keyboard Riff:
D - C - G - F - E - C#


Riff k:
|------------------------------
|------------------------------
|-----9999977777555554444455555
|777777777755555333332222233333
|55555-------------------------
|------------------------------
       Play 6X
-------------------------------------|
-------------------------------------|
-7777777777--------------------------|
-555555555577777777776667777777777666|
-----------55555555554445555555555444|
-------------------------------------|
  (end riff k)
End on a D5 chord.






Like us on Facebook