King Tab - Satyricon






K.I.N.G. By Satyricon
Off 2006's Now, Diabolical by copyright of Roadrunner records.

Alex_chapman58@hotmail.com for any questions or comments

Gtr.I   (Eb Ab Db Gb Bb Eb)
Gtr.II  (Eb Ab Db Gb Bb Eb)
Gtr.III (Eb Ab Db Gb Bb Eb)

|-------------------------------------|
|-------------------------------------|
|---7---10-----9p75-7-7-7---3-3-3-3--|
|-0---0----0-0-----(0)-----0---(0)----|
|-------------------------------------| x4
|-------------------------------------| 


|---------------------------------|
|---------------------------------|
|---7---10---9p75-7/87-6-6-6-6--|
|-0---0----0------(0)----6-6-6-6--|
|------------------------4-4-4-4--| x2
|---------------------------------|


|--------------------------------------|
|--------------------------------------|
|--------------------------------------|
|-7-7-7/1095-/87-7-7/10-1095-/87-|
|-5-5-5/1093-/85-5-5/8--8-73-/65-|
|-5-5-5/8-73-/65-5-5/8--8-73-/65-|

|---------------------------------------|
|---------------------------------------|
|---------------------------------------|
|-7-7/10-1095-/87-7-7/10-1095-/87-|
|-5-5/8--8-73-/65-5-5/8--8-73-/65-|
|-5-5/8--8-73-/65-5-5/8--8-73-/65-|


|---------------------------------|
|---------------------------------|
|---7---10---9p75-7/87-6-6-6-6--|
|-0---0----0------(0)----6-6-6-6--|
|------------------------4-4-4-4--|
|------------------------4-4-4-4--| Rpt 4 X

 Gtr.I
[---------------------------------|
[---------------------------------|
[---7---10---9p75-7/87-6-6-6-6--|
[-0---0----0------(0)----6-6-6-6--|
[------------------------4-4-4-4--|
[------------------------4-4-4-4--|
[Gtr.II
[---------------------------------|
[---------------------------------|
[---------------------------------|
[-0-0-0-3--0-2-0------------------|
[----------------3/5-6-5-4-4-4-4--|
[---------------------------------|Rpt 4 X


|-----------------------------------|
|-----------------------------------|
|-----------------------------------|
|-7-7-7/8-75/7-5-5-5/8--10-10/12--|
|-5-5-5/6-53/5-3-3-3/6--8--8-/10--|
|-5-5-5/6-53/5-3-3-3/6--8--8-/10--|Rpt 4 X

|--------------------------------------|
|--------------------------------------|
|--------------------------------------|
|-7-7-7/1095-/87-7-7/10-1095-/87-|
|-5-5-5/1093-/85-5-5/8--8-73-/65-|
|-5-5-5/8-73-/65-5-5/8--8-73-/65-|

|---------------------------------------|
|---------------------------------------|
|---------------------------------------|
|-7-7/10-1095-/87-7-7/10-1095-/87-|
|-5-5/8--8-73-/65-5-5/8--8-73-/65-|
|-5-5/8--8-73-/65-5-5/8--8-73-/65-|



|---------------------------------|
|---------------------------------|
|---7---10---9p75-7/87-6-6-6-6--|
|-0---0----0------(0)----6-6-6-6--|
|------------------------4-4-4-4--|
|------------------------4-4-4-4--| Rpt 4 X

 Gtr.I
[---------------------------------|
[---------------------------------|
[---7---10---9p75-7/87-6-6-6-6--|
[-0---0----0------(0)----6-6-6-6--|
[------------------------4-4-4-4--|
[------------------------4-4-4-4--|
[Gtr.II
[---------------------------------|
[---------------------------------|
[---------------------------------|
[-0-0-0-3--0-2-0------------------|
[----------------3/5-6-5-4-4-4-4--|
[---------------------------------|Rpt 4 X


|-----------------------------------|
|-----------------------------------|
|-----------------------------------|
|-7-7-7/8-75/7-5-5-5/8--10-10/12--|
|-5-5-5/6-53/5-3-3-3/6--8--8-/10--|
|-5-5-5/6-53/5-3-3-3/6--8--8-/10--|Rpt 4 X


 Guitar 1
|-------------------------------|
|-------------------------------|
|-------------------------------|
|-7-7------2-2-3-5-/10-10-6-6/8-|
|-7-7------2-2-3-5-/10-10-6-6/8-|
|-5-5------0-0-1-3-/8--8--4-4/6-|


|-------------------------------|
|-------------------------------|
|-------------------------------|
|---7~~~~~~~~~~~~~~~~~~~--------|
|-------------------------------|
|-------------------------------| Rpt 3 X

 Gtr.I
|----------------------------------|
|----------------------------------|
|----------------------------------|
|----------------------------------|
|-7---------2-3/5-10--------6-6/8--|
|-5-5-5-5-5-0-1/3/8-8-8-8-8-4-4/6--|
    . . . .         . . . . 
Gtr.II
 ~~~~~~~~~~~~~~~~~~~~~~~~~~~~~~~~
|----------------------------------|
|----------------------------------|
|----------------------------------|
|-7--------------/10--------5-5-8--|
|----------------------------------|
|----------------------------------| Rpt 2 X

 Gtr.I
|----------------------------------|
|----------------------------------|
|----------------------------------|
|----------------------------------|
|-7---------2-3/5-10--------6-6/8--|
|-5-5-5-5-5-0-1/3/8-8-8-8-8-4-4/6--|
    . . . .         . . . .
Gtr.II
   ~~~~~~~~~~~~~~~~~~~~~~~~~~~~~~~~
|----------------------------------|
|----------------------------------|
|---------------------------8-8-8--|
|-7--------------/10---------------|
|----------------------------------|
|----------------------------------|

 Gtr.I
[----------------------------------|
|----------------------------------|
[----------------------------------|
[----------------------------------|
[-7---------2-3/5-10--------6-6/8--|
[-5-5-5-5-5-0-1/3/8-8-8-8-8-4-4/6--|
    . . . .         . . . .
Gtr.II
  ~~~~~~~~~~~~~~~~~~~~~~~~~~~~~~~~
|----------------------------------|
|---------------------------111111-|
|-9--------------/12---------------|
|----------------------------------|
|----------------------------------|
|----------------------------------|

 Gtr.I
|---------------------------------|
|---------------------------------|
|---7---10---9p75-7/87-6-6-6-6--|
|-0---0----0------(0)----6-6-6-6--|
|------------------------4-4-4-4--|
|------------------------4-4-4-4--|

 Gtr.II
|---------------------------------|
|---------------------------------|
|---------------------------------|
|-0-0-0-3--0-2-0------------------|
|----------------3/5-6-5-4-4-4-4--|
|---------------------------------|

 Gtr.III
  ~~~~~~~~~~~~~~~~~~~~~~~~~~~~~
|---------------------------------|
|-10------------------------------|
|---------------------------------|
|---------------------------------|
|---------------------------------|
|---------------------------------|


 Gtr.I
|---------------------------------|
|---------------------------------|
|---7---10---9p75-7/87-6-6-6-6--|
|-0---0----0------(0)----6-6-6-6--|
|------------------------4-4-4-4--| x3
|------------------------4-4-4-4--|

Gtr.II
|---------------------------------|
|---------------------------------|
|---------------------------------|
|-0-0-0-3--0-2-0------------------|
|----------------3/5-6-5-4-4-4-4--| x3
|---------------------------------| 

 Rpt Chorus Riff 4 X

 Guitar 1
|---------------------------------|
|---------------------------------|
|---7---10---9p75-7/87-6-6-6-6--|
|-0---0----0------(0)----6-6-6-6--|
|------------------------4-4-4-4--|
|------------------------4-4-4-4--|

 Guitar 2
|---------------------------------|
|---------------------------------|
|------------------------6-6-6-6--|
|------------------------6-6-6-6--|
|------------------------4-4-4-4--|
|------------------------4-4-4-4--|

|------------------|
|------------------|
|------------------|
|-7-7-7/1095-/8-|
|-5-5-5/1093-/8-|x4
|-5-5-5/8-73-/6-|



|------|
|------|
|------|
|-7---|
|-5---|
|-5---|

Legend:
. = P.M.
/ = slide too
 = Slide From
~ = Vibrato
( ) = Let Ring
H = Hammer on
P = Pull off






Like us on Facebook