Now Diabolical Intro Tab - Satyricon






----------------------------------------------------------------------------
    NOW, DIABOLICAL - SATYRICON
----------------------------------------------------------------------------Tabbed by: Alex
Email: isupporttheledge@msn.com

Tuning: 1/2 a step down.

e|-----------------|
B|-----------------|
G|-----------------|
D|-2-2-2-2-2-2-2-2-|   x2
A|-2-2-2-2-2-2-2-2-|
E|-0-0-0-0-0-0-0-0-|

e|--------------------|
B|--------------------|
G|----------------4---|
D|----3--5-----6------|  x4
A|-5--------7---------|  
E|--------------------| 


| /  slide up
|   slide down
| h  hammer-on
| p  pull-off
| ~  vibrato
| +  harmonic
| x  Mute note
============================================================================






Like us on Facebook