Rite Of Our Cross Intro Tab - Satyricon






----------------------------------------------------------------------------
                                   Satyricon
                               Rite Of Our Cross
----------------------------------------------------------------------------
Tabbed by: Jonis
Email: Hornquist_9210@hotmail.com

Tuning: Tune down 1/2 step




 /  slide up
   slide down
 h  hammer-on
 p  pull-off
 ~  vibrato
 +  harmonic
 x  Mute note



Intro (8x)
|--------------------------------------------------------------------------|
|--------------------------------------------------------------------------|
|--------------------------------------------------------------------------|
|----0--0--------------4---------------------------------------------------|
|--2--2--2-4--2-4--1-4-----------------------------------------------------|
|--------------------------------------------------------------------------|

(3x)
|--------------------------------------------------------------------------|
|--------------------------------------------------------------------------|
|--------------------------------------------------------------------------|
|--------------------------------------------------------------------------|
|--4-----------------------------------------------------------------------|
|--2----2-2-2-2/3--2/3-----------------------------------------------------|



|--------------------------------------------------------------------------|
|--------------------------------------------------------------------------|
|--------------------------------------------------------------------------|
|--------------------------------------------------------------------------|
|--8----------8------------------------------------------------------------|
|--6----6-6-6-6--6--10/9---------------------------------------------------|

Verse(4x)
|--------------------------------------------------------------------------|
|--------------------------------------------------------------------------|
|--------------------------------------------------------------------------|
|--------------------------------------------------------------------------|
|--4----------1-------3----------------------------------------------------|
|--2----2-2-2---2-2-2---2-2-2-2/3--3/2-------------------------------------|


|--------------------------------------------------------------------------|
|--------------------------------------------------------------------------|
|--------------------------------------------------------------------------|
|--------------------------------------------------------------------------|
|3-3-3-3-3-3-3-3-3-3-3-3-3-3-3-3-3-3-3-3-3-3-3-3---------------------------|
|1-1-1-1-1-1-1-1-1-1-1-1-1-1-1-1-1-1-1-1-1-1-1-1---------------------------|


|--------------------------------------------------------------------------|
|--------------------------------------------------------------------------|
|----------------------2-2-2-2-2-2-2-2-2-2-2-------------------------------|
|-----------3-3-3-3-3-3----------------------------------------------------|
|3-3-3-3-3-3---------------------------------------------------------------|
|--------------------------------------------------------------------------|



Verse(2x)
|--------------------------------------------------------------------------|
|--------------------------------------------------------------------------|
|--------------------------------------------------------------------------|
|--------------------------------------------------------------------------|
|--4----------1-------3----------------------------------------------------|
|--2----2-2-2---2-2-2---2-2-2-2/3--3/2-------------------------------------|



|--------------------------------------------------------------------------|
|--------------------------------------------------------------------------|
|--------------------------------------------------------------------------|
|--------------------------------------------------------------------------|
|3-3-3-3-3-3-3-3-3-3-3-3-3-3-3-3-3-3-3-3-3-3-3-3---------------------------|
|1-1-1-1-1-1-1-1-1-1-1-1-1-1-1-1-1-1-1-1-1-1-1-1---------------------------|


|--------------------------------------------------------------------------|
|--------------------------------------------------------------------------|
|----------------------2-2-2-2-2-2-2-2-2-2-2-------------------------------|
|-----------3-3-3-3-3-3----------------------------------------------------|
|3-3-3-3-3-3---------------------------------------------------------------|
|--------------------------------------------------------------------------|



(3x)
|--------------------------------------------------------------------------|
|--------------------------------------------------------------------------|
|--------------------------------------------------------------------------|
|--------------------------------------------------------------------------|
|--4-----------------------------------------------------------------------|
|--2----2-2-2-2/3--2/3-----------------------------------------------------|


|--------------------------------------------------------------------------|
|--------------------------------------------------------------------------|
|--------------------------------------------------------------------------|
|--------------------------------------------------------------------------|
|--8----------8------------------------------------------------------------|
|--6----6-6-6-6--6--10/9---------------------------------------------------|



|--------------------------------------------------------------------------|
|--------------------------------------------------------------------------|
|-----------------------------------5--------------------------------------|
|--4-----4---2--5-----4-----4----2--5--------------------------------------|
|--4-----4---2--5-----4-----4----2--3--------------------------------------|
|--2-----2---0--3-----2-----2----0-----------------------------------------|
















Like us on Facebook