Filthy Gorgeous (ver3) Bass Tab - Scissor Sisters




This is a very funky song, using straight octaves. I'm not quite so sure if the second
section is correct, or how to convey the structure, so I'm gonna have to leave you to
listen to the song and figure it yourself!

Main Section
G:------5--------2-------3---------4---|
D:-------------------------------------|
A:--3--------0-------1--------2--------|
E:-------------------------------------|

Second Section (#you gotta wrap your fuzzy...#)

G:------------------------------then the-------------|
D:------------------------------above section--------|
A:------------------------3--5--repeats a------------|
E:--4--4--4--2--4--1-1-1--------few times------4---2-|

Third Section (#you're disgusting...#)
G:--------------------------|
D:--------------------------|
A:---3-----1----------------|
E:----------------4-------1-|

ĂŽnscrie-te la newsletter


Join the ranks ! LIKE us on Facebook