Take Your Mama Bass Tab - Scissor Sisters




Hi
This is my first tab on this site, i know it is not very accurate but it goes along with the tune.

Guitar intro

First verse:

G|-------------------------------------------------|
D|8-8-8-8-8-6-6-6-6-6-10-10-10-10-10-10-8-8-8-8-8-8|  x3
A|-------------------------------------------------|
E|-------------------------------------------------|

Pre-Chorus:
G|---------------------|
D|10-10-10-10-9-8-8-8-8| x2
A|---------------------|
E|---------------------|

Chorus:
G|---------------------------------------|
D|8-8-8-8-8-6-6-6-6-6-----------8-8-8-8-8|  x4
A|--------------------6-6-6-6-6----------|
E|---------------------------------------|

second verse:
G|-------------------------------------------------|
D|8-8-8-8-8-6-6-6-6-6-10-10-10-10-10-10-8-8-8-8-8-8|  x3
A|-------------------------------------------------|
E|-------------------------------------------------|

Pre-Chorus:
G|---------------------------------|
D|10-10-10-10-10-10-10-10-9-8-8-8-8| x2
A|---------------------------------|
E|---------------------------------|

Chorus:
G|---------------------------------------|
D|8-8-8-8-8-6-6-6-6-6-----------8-8-8-8-8|  x4
A|--------------------6-6-6-6-6----------|
E|---------------------------------------|

Guitar solo:
G|---------------------------------------|
D|8-8-8-8-8-6-6-6-6-6-----------8-8-8-8-8|  x2
A|--------------------6-6-6-6-6----------|
E|---------------------------------------|

Mini chorus:
G|---------------------------------------|
D|8-8-8-8-8-6-6-6-6-6-----------8-8-8-8-8|  x2
A|--------------------6-6-6-6-6----------|
E|---------------------------------------|

I hope you like it!
RATE IT 5!!!!!!!!! lol

Înscrie-te la newsletter


Join the ranks ! LIKE us on Facebook