Wind Of Change Solo Tab - Scorpions




#----------------------------------PLEASE NOTE--------------------------------#
#This file is the author's own work and represents their interpretation of the#
#song. You may only use this file for private study, scholarship, or research.#
#-----------------------------------------------------------------------------#
#-- File created with Instab - http://www.pconline.com/~smcarey/instab.html --#
#-----------------------------------------------------------------------------#

Author/Artist: Scorpions
Title: Winds of Change Solo
Transcribed by: ben_jovi2001
Email: ben_jovi2001@yahoo.com

Here's the solo to "Winds of Change," near as I can figure.
Listen close for the stuff that doesn't seem to make sense...it's there.
Use with the posted chords, NOT chordpro.
Enjoy, and Godbless :)

-|----------------------------12b---------------------------------------------|
-|------12-12b--------12-12b-------------12-13-12h13p12-----------------------|
-|12-14---------12-14--------------12-14----------------12-14--12----12-14p12-|
-|----------------------------------------------------------------14----------|
-|----------------------------------------------------------------------------|
-|----------------------------------------------------------------------------|


--------------------------------------------------------------17--15-14-12-12-|
-------------------------------------------------------17---------------------|
----------------------------------------14-16b-16b-16b----16b-----------------|
-13-14-/16-14-13-14-12h14p12-10-12---17---------------------------------------|
------------------------------------------------------------------------------|
------------------------------------------------------------------------------|


--------------------------------------------12-----16---14-12-14-16----------|
-----------------------------------------------14----------------------------|
-----------------------------------------------------------------------------|
-----------------------12-14--12-14-12---15----------------------------------|
-12---12-15-14---14-15-------------------------------------------------------|
-----------------------------------------------------------------------------|

ĂŽnscrie-te la newsletter


Join the ranks ! LIKE us on Facebook