Broken Tab - Secondhand Serenade






Tab by Josh aka Binzer

ok... everyones tab of this song is TOTALLY wrong.  This should be 100% correct.  Listen 
the song for correct strumming pattern...


Intro/Verse  "In the moonlight..." (0:17)

e|-0-----0-----0-----|
B|-0-----0-----0-----|
G|-6-----0-----2-----|     X6
D|-6-----6-----2-----|
A|-4-----6-----0-----|
E|-x-----4-----x-----|


Chorus  "Is it broken..." (0:51)

e|-0-----0-----0-----0-----|
B|-0-----0-----0-----0-----|
G|-0-----0-----2-----4-----|    X2
D|-2-----6-----2-----4-----|
A|-2-----6-----0-----2-----|
E|-0-----4-----x-----x-----|


Bridge/Verse  "So here we are..." (1:34)
e|-0-----0-----0-----|
B|-0-----0-----0-----|
G|-6-----0-----2-----|     X6 (?)
D|-6-----6-----2-----|
A|-4-----6-----0-----|
E|-x-----4-----x-----|


Prechorus  "Think that we are..." (2:11)

e|-0-----0-----0-----0-----0-----0-----0-----0-----0-----|
B|-0-----0-----0-----0-----0-----0-----0-----0-----0-----|
G|-0-----6-----2-----0-----6-----2-----0-----0-----2-----|
D|-2-----6-----2-----2-----6-----2-----2-----6-----2-----|
A|-2-----4-----0-----2-----4-----0-----2-----6-----0-----|
E|-0-----x-----x-----0-----x-----x-----0-----4-----x-----|


e|-0-----0-----0-----|
B|-0-----0-----0-----|
G|-6-----0-----2-----|
D|-6-----6-----2-----|
A|-4-----6-----0-----|
E|-x-----4-----x-----|


Chorus  "Is it broken..." (3:02)

e|-0-----0-----0-----0-----|
B|-0-----0-----0-----0-----|
G|-0-----0-----2-----4-----|     X2
D|-2-----6-----2-----4-----|
A|-2-----6-----0-----2-----|
E|-0-----4-----x-----x-----|


A few last strums...

e|-0-----0-----0-----|
B|-0-----0-----0-----|
G|-6-----0-----2-----|
D|-6-----6-----2-----|
A|-4-----6-----0-----|
E|-x-----4-----x-----|


NOTE: for beginners, on the last note of the verse, you can play this instead,  its just 
to finger and it sounds about the same,  and another thing,  try and mute the bottom 2 
3 strings when playing, gives it that deeper sound almost like Dashboard or something.  Good luck!!!

e|-0-----|
B|-0-----|
G|-0-----|
D|-7-----|
A|-7-----|
E|-5-----|

ĂŽnscrie-te la newsletter


Like us on Facebook