Vulnerable Intro Tab - Secondhand Serenade






----------------------------------
"Vulnerable" - Secondhand Serenade
----------------------------------
Tabbed by: Justin RiRaY
Email: Pakman7JR@hotmail.com       
AIM: BeatPwner

Tuning: eBGDAE

     INTRO
 
e|-----3---1-0----------3--|
B|---------------1------1--|
G|----0--0-----0------0----| X 2
D|-------------------------|
A|--3----------------------|
E|------------------1------|

ĂŽnscrie-te la newsletter


Like us on Facebook