Youth Cats Intro Tab - Secret And Whisper






-------------------------------------------------------------------------------
     SONG NAME - Band Name
-------------------------------------------------------------------------------
Tabbed by: infectedmusicac
Email:infectedmusicac@yahoo.com

Tuning:CGCFAD

Comments: This is just the lead part for the intro - more to come, I'm still working on 
- please feel free to make corrections/comments, but be nice and remember to check 
I hope to have the whole song up soon!

D|--------------------------------------------------------------15----------------------|
A|-----------------------------------------15---------18---------------------------------|
F|----------------------14-15-15*---(15)(15)--(15)(15)---(15)(15)------------------------|
C|--/17-12*-------/17-12-----------------------------------------------------------------|
G|---------------------------------------------------------------------------------------|
C|---------------------------------------------------------------------------------------|
(*hold the 12 and the 15 along with the song)

D|-----------18---17---15---15---1515-----------------18---17---15------------------|
A|--15------------------------18-----18------15---------------------------18tr------|
F|----(15)(15)-(15)-(15)-(15)----------17------(15)(15)-(15)-(15)--15tr-17tr--17tr--|
C|----------------------------------------------------------------------------------|
G|----------------------------------------------------------------------------------|
C|----------------------------------------------------------------------------------|


D|-----------18---17---15---15---1515---------------18---17---15---15--18h20p1817-------|
A|--15------------------------18-----18------15-----------------------------------18h20--|
F|----(15)(15)-(15)-(15)-(15)----------17-----(15)(15)-(15)-(15)-(15)--------------------|
C|---------------------------------------------------------------------------------------|
G|---------------------------------------------------------------------------------------|
C|---------------------------------------------------------------------------------------|


************************************
| (x) muted note
| tr  tremolo pick
| /   slide up
|    slide down
| h   hammer-on
| p   pull-off
| ~   vibrato
| +   harmonic
| b   Bend
| pb  Pre-bend
| br  Bend release
| pbr Pre-bend release
| brb Bend release bend

************************************






Like us on Facebook