Off The Chain Tab - Selena Gomez And The Scene






Selena Gomez & The Scene - Off The Chain

STANDARD TUNING

TABBED BY KARLA DULAY!

VERSE
u could just play this for the rhythm 
e|---------------------------------------|
B|---------------------------------------|
G|---------------------------------------|
D|-----------------------------4---------|
A|---2-------4--------6--------2---------|
E|---0-------2--------4------------------|

Then for the second half of the verse:
e|------------------------------------------------------------------|
B|------------------------------------------------------------------|
G|------------------------------------------------------------------|
D|--4/6--6/8---8/9--9/11-11/13-13-13-13----4/6--6/8--8/9------------|
A|------------------------------------------------------------------|
E|------------------------------------------------------------------|

CHORUS
e|------------------|--------------|
B|------------------|--------------|
G|------------------|--------------|
D|--------------4---|--------------| 
A|--2---4---6---2---|--2---4---6---|
E|--0---2---4-------|--0---2---4---|
you only play the first part like this then the rest is like this:

e|-------------|------------|
B|-------------|------------|
G|-------------|------------|
D|-----------4-|--------6---|  REPEAT
A|--2--4--6--2-|--2--4--4---|
E|--0--2--4----|--0--2------|

REPEAT VERSE AND CHORUS


BRIDGE
e|----------------------------|
B|----------------------------|
G|----------------------------|
D|--------4-------------------|  2x
A|---6----2------4------------|
E|---4-----------2------------|
u can hear how to play the bridge if u listen to the live version of the song

then play the first part of the chorus and start the chorus all over again until 
the end of the song

ĂŽnscrie-te la newsletter


Like us on Facebook