Bonecrusher Bass Tab - Senses Fail






Allright so theres no bass tab for Bonecrusher and my band wanted to play it so I made 
easy one quickly so we could get by. Well hope you enjoy.
   Intro 2x
G----------------------------------------------------------------|
D----------------------------------------------------------------|
A----------------------------------------------------------------|
D-999-0~-555-0~-777-0~-999997------------------------------------|
   Pre Verse 2x
G----------------------------------------------------------------|
D----------------------------------------------------------------|
A----------------------------------------------------------------|
D-9999999-0000000-555-5-5-0-0-000--------------------------------|
   Verse 2x
G----------------------------------------------------------------|
D----------------------------------------------------------------|
A----------------------------------------------------------------|
D-999-0~-555-0~-7777777777777777---------------------------------|
  Pre Verse 2x
G----------------------------------------------------------------|
D----------------------------------------------------------------|
A----------------------------------------------------------------|
D-9999999-0000000-555-5-5-0-0-000--------------------------------|
   Verse 2x
G----------------------------------------------------------------|
D----------------------------------------------------------------|
A----------------------------------------------------------------|
D-999-0~-555-0~-7777777777777777---------------------------------|
  Chorus 2x
G----------------------------------------------------------------|
D----------------------------------------------------------------|
A----------------------------------------------------------------|
D-9999999999999-000000000000-777777777976-555555555555-----------|
   Intro 1x
G----------------------------------------------------------------|
D----------------------------------------------------------------|
A----------------------------------------------------------------|
D-999-0~-555-0~-777-0~-999997------------------------------------|
   Pre Verse 2x
G----------------------------------------------------------------|
D----------------------------------------------------------------|
A----------------------------------------------------------------|
D-9999999-0000000-555-5-5-0-0-000--------------------------------|
  Breakdown 1x
G----------------------------------------------------------------|
D----------------------------------------------------------------|
A----------------------------------------------------------------|
D-9~-12~-5~-9~-12~-14-12-9-5~------------------------------------|
   Chorus 2x
G----------------------------------------------------------------|
D----------------------------------------------------------------|
A----------------------------------------------------------------|
D-9999999999999-000000000000-777777777976-555555555555-----------|
     Breakdown 1x  (those are 11's)
G----------------------------------------------------------------|
D----------------------------------------------------------------|
A----------------------------------------------------------------|
D-999-9-9-9-9-99-111111-11-11-11-11-1111-121212-12-12-12-12-1212-|

G----------------------------------------------------------------|
D----------------------------------------------------------------|
A----------------------------------------------------------------|
D-555-5-5-5-5-55-222-2-2-2-2-22-444-4-4-4-4-44-------------------|
   Intro 3x
G----------------------------------------------------------------|
D----------------------------------------------------------------|
A----------------------------------------------------------------|
D-999-0~-555-0~-777-0~-999997------------------------------------|
  ending
G----------------------------------------------------------------|
D----------------------------------------------------------------|
A----------------------------------------------------------------|
D-999-0~-555-0~-2-22222222222222-4-444444444444444---------------|

G----------------------------------------------------------------|
D----------------------------------------------------------------|
A----------------------------------------------------------------|
D-999-0~-555-0~-777-0~-999997------------------------------------|

G----------------------------------------------------------------|
D----------------------------------------------------------------|
A----------------------------------------------------------------|
D-999-0~-555-0~-777777--9-9-9------------------------------------|






Like us on Facebook