Calling All Cars (ver2) Tab - Senses Fail






Guitar 1
(Drop D)
intro
=====
e--------------------------------------------------------------------|
b--------------------------------------------------------------------|
g----------------------------------------7---------------------------|
d-9999------7777------0000------5555-----7---------------------------|
a-9999(X16)-7777(X16)-0000(X16)-5555(X8)-5---------------------------|
d-9999------7777------0000------5555-----5---------------------------|
  PM         PM        PM        PM

intro (cont.)
=============
---------------------------10-9-7--------------------------------------|
------10----10---10----10--------10------------------------------------|
--6-7---6-7---6-7---6-7------------(Repeat)----------------------------|
-----------------------------------------------------------------------|
-----------------------------------------------------------------------|
-----------------------------------------------------------------------|

17-14-14-14-14-14-15-14-14-14-----------------------------------------|
----------------------------15-14-14-15-(Repeat)----------------------|
----------------------------------------------------------------------|
----------------------------------------------------------------------|
----------------------------------------------------------------------|
----------------------------------------------------------------------|

Verse 1 (Do the same thing for second verse)
=======

---------------------------------------------------------------------|
---------------------------------------------------------------------|
-------------------7-7-7777---------(Repeat)-------------------------|
-9-9-999-7-7-xxxx--7-7-7777-5-5-xxxx---------------------------------|
-9-9-999-7-7-xxxx--5-5-5555-5-5-xxxx---------------------------------|
-9-9-999-7-7-xxxx-----------5-5-xxxx---------------------------------|

---------------------------------------------------------------------|
---------------------------------------------------------------------|
--------------------7777---------------------------------7777--------|
9999------7777------7777(8X)-5555------9999-----7777-----7777(12X)---|
9999-(8X)-7777-(8X)-5555-----5555-(8X)-9999(8X)-7777(8X)-5555--------|
9999------7777---------------5555------9999-----7777-----------------|

Chorus
======

---------------------------------------------------------------------|
---------------------------------------------------------------------|
---------------------------------------------------------------------|
0000------7777------5-9999------5555------555555-(Repeat)------------|
0000(16X)-7777(15X)-5-9999(16X)-5555(16X)-555555---------------------|
0000------7777------5-9999------5555------555555---------------------|
                                           P.M.






Like us on Facebook