Calling All Cars Intro (ver4) Tab - Senses Fail






Lead intro (played after rhythm intro)
e|----------------------------------------10---------------------|
B|------10--------10--------10--------10-----14-12-10------------|
G|---------------------------------------------------------------|
D|11h12----11h12----11h12----11h12-------------------------------|
A|---------------------------------------------------------------|
D|---------------------------------------------------------------|


e|--------------------------10----10-12--------------------------|
B|-------10-------10-----------14--------------------------------|
G|---------------------------------------------------------------|
D|11h12-----11h12----11h12---------------------------------------|
A|---------------------------------------------------------------|
D|---------------------------------------------------------------|


e|17--------16----16--15-----------------------------------------|
B|---15--------16--------16-----15-14-15-------------------------|
G|------14------------------15-----------------------------------|
D|---------------------------------------------------------------|
A|---------------------------------------------------------------|
D|---------------------------------------------------------------|


e|17---------16----16---15---------------------------------------|
B|---15---------16---------16------15-14-15----------------------|
G|------14--------------------15--------------16~~---------------|
D|---------------------------------------------------------------|
A|---------------------------------------------------------------|
D|---------------------------------------------------------------|






Like us on Facebook