Calling All Cars Intro Tab - Senses Fail






Here's at least the intro part to the song Calling All Cars off the album Still 
by Senses Fail. I'm working on tabbing out the entire song so i'll add the rest when it's finished.


Senses Fail  Calling All Cars


Tuning  Drop D
~ - Let Ring
/ - Slide
.  Palm Mute


Intro, Pt. 1

Guitar 1

E|-----------------------------------------------------------|
B|-----------------------------------------------------------|
G|--------------------------------------------------------7~-|
D|999999999999999077777777777777770000000000000000555555555~
A|999999999999999077777777777777770000000000000000555555555~
D|999999999999999077777777777777770000000000000000555555555~
  ........................................................

Guitar 2

E|----------------------------------------------------------|
B|----------------------------------------------------------|
G|----------------------------------------------------------|
D|----------------------------------------------------------|
A|----------------------------------------------------------|
D|----------------------------------------------------------|


Intro, Pt. 2

Guitar 1

E|----------------------------------------------------------------|
B|----------------------------------------------------------------|
G|44444444444444446666666666666666--------------------------------|
D|4444444444444444777777777777777700000000000000005555555555555555
A|2222222222222222444444444444444400000000000000005555555555555555
D|--------------------------------00000000000000005555555555555555


Guitar 2


E|-----5------5------5------5/10-9-7-5------5------5------7------5/10-9-10-12-|
B|----------------------------------------------------------------------------|
G|-6-7----6-7----6-7----6-7-------------6-7----6-7----6-7----6-7--------------|
D|----------------------------------------------------------------------------|
A|----------------------------------------------------------------------------|
D|----------------------------------------------------------------------------|

E|----17----14-15-14--------------------17----14-15-14--------------------|
B|-15----15----------151515-1414-15--15----15----------151515-1414-15-----|
G|------------------------------------------------------------------------|
D|------------------------------------------------------------------------|
A|------------------------------------------------------------------------|
D|------------------------------------------------------------------------|






Like us on Facebook