Calling All Cars Tab - Senses Fail






Senses Fail - Calling All Cars
Credit: Me(NJSkyline)

*This is just the rhythm guitar*
*Figure the pattern out by yourself, its easy*

Intro:
e--------------------------------|
b--------------------------------|
g--------------------------------|
d-9990--7770--0000--5555---------|
a-9990--7770--0000--5555---------|
d-9990--7770--0000--5555---------|
pm...........................

After Intro:
e----------------------------|
b----------------------------|
g----------------------------|
d-9--7--0--5-----------------|
a-9--7--0--5-----------------|
d-9--7--0--5-----------------|

Verse:
e-------------------------------|
b-------------------------------|
g-------------------------------|
d-9-x-7-x-0-x-5-----------------| (figure out the timing)
a-9-x-7-x-0-x-5-----------------|
d-9-x-7-x-0-x-5-----------------|

Pre-chorus:
e----------------------------|
b----------------------------|
g----------------------------|
d-9--7--0--5-----------------| (Strum those chords)
a-9--7--0--5-----------------|
d-9--7--0--5-----------------|

Chorus:
e----------------------------|
b----------------------------|
g----------------------------|
d-0--7--9--5-----------------|
a-0--7--9--5-----------------|
d-0--7--9--5-----------------|

Verse: Same as before

Pre-chorus: Same as before

Chorus: Same as before

Bridge:
e------------------------------|
b------------------------------|
g------------------------------|
d-9--7--00h5p0-----------------| (play with this, its not that hard)
a-9--7--00h5p0-----------------|
d-9--7--00h5p0-----------------|

I dont have an ounce of good in me:
e------------------------|
b------------------------|
g------------------------|
d-00h5p0-----------------| (play with that, its not correct but its
a-00h5p0-----------------|  the idea, and right chords)
d-00h5p0-----------------|

Chorus: Same as before

I am not the one you should blame:
e--------------------------|
b--------------------------|
g--------------------------|
d-0--7--9--5---------------|
a-0--7--9--5---------------|
d-0--7--9--5---------------|

Thats basically it, I tabbed it out since I didnt see any tabs for it.
Its rather easy like most SF songs but yet still fun, enjoy.






Like us on Facebook