Cant Be Saved (ver2) Tab - Senses Fail






Senses Fail
Can't Be Saved

tabbed by: Blaire


Yo.. Im still workin on parts of this song so i'll add when i finish it.
So here's what i have so far.. sounds pretty good


KEY

h-hammer on
p-pull off
/-slide




Intro/Main Riff


e|--------17-19-----|
B|-19-20---------20-|
G|------------------|   (x3)
D|------------------|
A|------------------|
D|------------------|


e|---------------------------------|
B|-19h20p19---19h20-19h20-19-------|
G|---------------------------------|
D|---------------------------------|
A|---------------------------------|
D|---------------------------------|



Verse 1


e|----------------------------------------------------------------------|
B|----------------------------------------------------------------------|
G|----------------------------------------------------------------------|
D|---------------------5-5-5-5-5-5-5------------------------------------|
A|-------------------------------------5-5-5-5-5-5-5-5-5-5-5-5-5-5-5-5--|
D|-7-7-7-7-7-7-7-7-7----------------------------------------------------| 


e|----------------------------------------------------------------------|
B|----------------------------------------------------------------------|
G|----------------------------------------------------------------------|
D|---------------------5-5-5-5-5-5-5---------------------4/5/4/5/7------|
A|-------------------------------------5-5-5-5-5-5-5-5------------------|
D|-7-7-7-7-7-7-7-7-7----------------------------------------------------|


e|----------------------------------------------------------------------|
B|----------------------------------------------------------------------|
G|----------------------------------------------------------------------|
D|-0----------------------0------0---0------------------0-----0---------|
A|-0--0-0-0-0-0-0-0---0-0-0--0-0-0---0--0-0-0-0-0-0-0-0-0-0-0-0---------|
D|-7--7-7-7-7-7-7-7---5-5-5--5-5-5---3--3-3-3-3-3-3-3-3-3-3-3-3---------|


e|----------------------------------------------------------------------|
B|----------------------------------------------------------------------|
G|----------------------------------------------------------------------|
D|-0----------------------0------0---0--------------0-0-0-0-0-0-0-0-----|
A|-0--0-0-0-0-0-0-0---0-0-0--0-0-0---0--0-0-0-0-0-0-0-0-0-0-0-0-0-0-----|
D|-7--7-7-7-7-7-7-7---5-5-5--5-5-5---3--3-3-3-3-3-3-3-3-3-3-3-3-3-3-----|



Chorus


e|--------17-19-----|
B|-19-20---------20-|
G|------------------|   (x3)
D|------------------|
A|------------------|
D|------------------|
                                                      (x2)

e|---------------------------------|
B|-19h20p19---19h20-19h20-19-------|
G|---------------------------------|
D|---------------------------------|
A|---------------------------------|
D|---------------------------------|



thats all i have right now and its 100% correct
any questions or corrections
email me at    shoot_35@yahoo.com






Like us on Facebook