Cant Be Saved Intro (ver2) Tab - Senses Fail






Song: Can't Be Saved
Artist: Senses Fail
Album: Still Searching
Tuning: Drop D

I dont have all of this song tabbed out...but the stuff i have sounds pretty 
than the other guy who posted...well here i go..

Intro Part 1:

Gtr. 1
e|--------|
B|---19---|
G|--------| Let this note ring out until 2nd part starts
D|--------|
A|--------|
D|--------|

Gtr. 2
e|-----------------------|
B|-----------------------|
G|-----------------------|
D|---0----5--------------| Let Each Note Ring
A|---0----5--------------|
D|---0----5----1/125----|


Intro Part 2:
Gtr. 1
e|-----------17--19--17-------         ---------------------------------|
B|---19--20--------------20--- 






Like us on Facebook