Cant Be Saved Intro Tab - Senses Fail






Can't be Saved By Senses Fail

Intro

e|--------------------------------|
B|--------------------------------|
G|--------------------------------|
D|--2-----------------------------|
A|--2-----------------------------|
E|--0-----------------------------|


e|--------------------------------|
B|--------------------------------|
G|--------------------------------|
D|--------------------------------|
A|--5-6-8-10-8-6-5-6--------------|X3
E|--------------------------------|


e|--------------------------------|
B|--------------------------------|
G|--------------------------------|
D|--------------------------------|
A|--5-6-8-10-8-6-5-5h6p5h6/8------|
E|--------------------------------|


e|--------------------------------|
B|--------------------------------|
G|---------5*---------------------|
D|---2*----5---5*----- -----------|
A|---2-----3---5------------------|
E|---0---------3------------ -----|

*8x







Like us on Facebook