Freefall Without A Parachute (ver2) Tab - Senses Fail






drop d


intro- and pre-chorus

e--------------------------------------------
b--------------------------------------------
g10101010-12-12-9-101010101212-9-------------
d-xxxxxxxxxxxxxxxxxxxxxxxxxxxxxxx-7-7-8-7-7-8
a-8-8-8-8-10-10-7-8-8-8-8-10-10-7-7-7-8-7-7-8 x2
d---------------------------------7-7-8-7-7-8

verse
e-------------------------------
b-------------------------------
g-------------------------------
d-3-3-3-5-5-5-5-8-8-8-8-8-8-8-8-    verse repeat 4 times  
a-3-3-3-3-3-3-3-8-8-8-8-8-8-8-8-
d-3-3-3-3-3-3-3-8-8-8-8-8-8-8-8-


chorus

e--------------------------------------------------------------------
b--------------------------------------------------------------------
g--------------------------------------------------------------------
d-3-3-3-3-3-3-3-3-0-0-0-0-0-0-0-0-8-8-8-8-8-8-8-8-8-1010101010101010-
a-3-3-3-3-3-3-3-3-0-0-0-0-0-0-0-0-8-8-8-8-8-8-8-8-8-1010101010101010-
d-3-3-3-3-3-3-3-3-0-0-0-0-0-0-0-0-8-8-8-8-8-8-8-8-8-1010101010101010-



then pretty much the rest of the song follows the 3-and 0- frets for other parts.
thats all right im still working on the picking.






Like us on Facebook