Garden State Solo Tab - Senses Fail






-------------------------------------------------------------------------------
     GARDEN STATE - Senses Fail
-------------------------------------------------------------------------------
Not really a solo, just the nice little riff at about 30 seconds in.
Enjoy and if you have anything you thinks wrong about it
then put up a tab yourself or send me an email.

Tabbed by:Jackk
Email:xenolithh@hotmail.com

Tuning: Standard

e|-17-17-17-15-15-15-14b----------14-----------14b--14b--15b--14-----------------|
B|----------------------15------15--15-14-15-17---17---17---17--17-15------------|
G|------------------------14--14-------------------------------------------------|
D|--------------------------16---------------------------------------------------|
A|-------------------------------------------------------------------------------|
E|-------------------------------------------------------------------------------|

e|-17-17-17-15-15-15-14b----------14--------------------14-----14-15p14--14------|
B|----------------------15------15--15-14-15-17-14-15-17--15-17--------17--17-15-|
G|------------------------14--14-------------------------------------------------|
D|--------------------------16---------------------------------------------------|
A|-------------------------------------------------------------------------------|
E|-------------------------------------------------------------------------------|

| b  bend
| p  pull-off

===============================================================================






Like us on Facebook