Institutionalized Tab - Senses Fail






-----------------------------------------------------------------------------
     Institutionalized - Senses Fail
-----------------------------------------------------------------------------


Tabbed by: kiefermatot

Email: bamcky2k_69@hotmail.com

Tuning: standard

I've only tabbed out the essential guitar parts. If you listen carefully you will
notice there is a solo playing which is hard to make out.


Verses:

E|----------------------|
B|----------------------|
G|----------------------|
D|----------------------|
A|--9-9-9-/-10-10-10-10-|
E|--7-7-7-/-8--8--8--8--|

after you play that twice, u play this once:

E|------------------|
B|------------------|
G|------------------|
D|------------------|
A|--6-7~-6-7-9------|
E|--------------8~--|

note: this is only play after the first two measures of each verse.
if you listen to it you'll figure it out.

after u play the verse about 28 times. You play this:
note: this is very very fast to play.

Pre Chorus:
E|---------------------|
B|---------------------|
G|---------------------|
D|--9999-10101010------|x4
A|--9999-10101010------|
E|--7777-8-8-8-8-------|


Chorus:

I'M NOT CRAZY!.....
E|-------------------|
B|-------------------|
G|-------------------|
D|-------------------|
A|--4-4-4-4-4-4-4-4--|
E|--2-2-2-2-2-2-2-2--|

INSTITUTION!....
E|--------------------|
B|--------------------|
G|--------------------|
D|--6-6-6-6--4-4-4-4--|
A|--4-4-4-4--2-2-2-2--|
E|--------------------|

They stick me in an institution....
E|---------------------|
B|---------------------|
G|---------------------|
D|--9999-10101010------|x4
A|--9999-10101010------|
E|--7777-8-8-8-8-------|


Then al of that just repeats.


| /  slide up
|   slide down
| h  hammer-on
| p  pull-off
| ~  vibrato
| +  harmonic
| x  Mute note
=============================================================================






Like us on Facebook