Lady In A Blue Dress Acoustic Chords - Senses Fail






This is the awesome version of the song which is on the special edition of their new 
Let in enfold you. Sorry if its not completely right cause  it's my first tab, but im 
sure you wont have any problems, and it's real easy too. Good luck!

Intro: (x2)
e---------------------------------------------------------------------------|
b---------------------------------------------------------------------------|
g-13-13-13-13-13-13-9-9-9-9-9-9-11-11-11-11-11-9-9-9-9----------------------|
d-11-11-11-11-11-11-7-7-7-7-7-7-9--9--9--9--9--7-7-7-7----------------------|
a-11-11-11-11-11-11-7-7-7-7-7-7-9--9--9--9--9--7-7-7-7----------------------|
d-11-11-11-11-11-11-7-7-7-7-7-7-9--9--9--9--9--7-7-7-7----------------------|

Pre verse/chorus: (x2)
e---------------------------------------------------------------------------|
b---------------------------------------------------------------------------|
g-13-(x9)-------------------------------------------------------------------|
d-11-(x9)-------------------------------------------------------------------|
a-11-(x9)-------------------------------------------------------------------|
d-11-(x9)-------------------------------------------------------------------|

Verse: ("just like a lady in a blue dress") (x4)(mute after chords)
e---------------------------------------------------------------------------|
b---------------------------------------------------------------------------|
g-13(x6)--------------------------------------------------------------------|
d-11(x6)--------------------------------------------------------------------|
a-11(x6)--------------------------------------------------------------------|
d-11(x6)--------------------------------------------------------------------|

Chorus
Verse
Chorus

Bridge: ("don't try to be cute with me") (x4)
e-----------------------------------------------------------------------------|
b-----------------------------------------------------------------------------|
g-13(x10)----15------13(x5)--11(x5)-------------------------------------------|
d-11(x10)----13------11(x5)--9-(x5)-------------------------------------------|
a-11(x10)----13------11(x5)--9-(x5)-------------------------------------------|
d-11(x10)----13------11(x5)--9-(x5)-------------------------------------------|

Verse (x2)
Chorus

End note: let it ring
e-------------------------------------------------------------------------|
b-------------------------------------------------------------------------|
g-------------------------------------------------------------------------|
d-5-0---------------------------------------------------------------------|
a-5-0---------------------------------------------------------------------|
d-5-0---------------------------------------------------------------------|


I hope its correct!






Like us on Facebook