Reza Tab - Sepultura






REZA

from: SEPULTURA
      AGAINST

Tuned to ?

e|-----------------|
B|-----------------|
G|-----------------|
D|--------  A.H. --|
A|--2--3--4444...--|
E|--0--1-----------|

e|------------------|
B|------------------|
G|------------------|
D|-----------4---4--|
A|--2--3--2--2-2-2--|
E|--0--1--0----0----|

Tabbed by Vogi (vogi@geocities.com).






Like us on Facebook