Arrival Notes Tab - Set Your Goals




This is the electric part for the Set Your Goals son 'Arrival Notes'.
I'm working on figuring out the acoustic part, bear with me ;)


Most of Set Your Goals' songs are played in Drop C#, I haven't tried it in Drop C# but 
sounds perfectly fine played in Standard tuning :)

Enjoy playing :)
Comment if you can so I can make adjustments if needed :)

Tabbed By - Liam Saul
Email me if you have any questions - lsaul95@googlemail.com


E|----------------------------|
B|----------------------------|
G|--12h11--9--7--9------------|
D|------------------9--9--12--|
A|----------------------------|
E|----------------------------|

E|---------------------------|
B|---------------------------|
G|--12h11--9--7--16--16--14--|
D|---------------------------|
A|---------------------------|
E|---------------------------|

E|------------------------------|
B|------------------------------|
G|--12h11--9--7--9--------------|
D|------------------9--9--7/12--|
A|------------------------------|
E|------------------------------|

E|--------------------------------------------|
B|--------------------------------------------|
G|--9--11--12--9--16--14--14--12--14----------|
D|------------------------------------16--17--|
A|--------------------------------------------|
E|--------------------------------------------|

E|--------------------------------------------|
B|--------------------------------------------|
G|--9--11--12--9--16--14--14--12--14----------|
D|------------------------------------16--16--|
A|--------------------------------------------|
E|--------------------------------------------|

E|----------------------------------------------------------------------|
B|----------------------------------------------------------------------|
G|--12--11--9--7--12h11--9--7--9------------12h11--9--7--9--16--16--14--|
D|--------------------------------9--9--12------------------------------|
A|----------------------------------------------------------------------|
E|----------------------------------------------------------------------|

E|------------------------------------------|
B|------------------------------------------|
G|--12h11--9--7--9----------------------12--|
D|------------------9--9--7--9--12--14------|
A|------------------------------------------|
E|------------------------------------------|

-----------------End-------------------------


Thanks guys, hope you can pick it up, its pretty simple :)
Comment if you can please :D

Liam x
ĂŽnscrie-te la newsletter


Join the ranks ! LIKE us on Facebook